Tabulatury

Moderator: Kred

Re: Tabulatury

Postprzez petlica » 10 Mar 2019, 11:32

Kod: Zaznacz wszystko
Opty Pesy

    Intro
C#|---------------------------|-------------------------|
G#|---------------------------|-------------------------|
E |---------------------------|-------------------------|
H |-8/9-----------------------|-8/9---------------------|
F#|-6/7-----------------------|-6/7---------------------|
H |---------------------------|-------------------------|

C#|---------------------------|-------------------------|
G#|---------------------------|-------------------------|
E |---------------------------|-------------------------|
H |-8/9----------8/9----------|-8/9---------------------|
F#|-6/7----------8/9----------|-6/7---9/10---7/9--9/10--|
H |---------------------------|-------7/8----5/7--7/8---|

   Riff A
C#|-------------------------------------|-------------------------|
G#|-------------------------------------|-------------------------|
E |-------------------------------------|-------------------------|
H |-8/9---------------------------------|-------------------------|
F#|-6/7---9---9/10---9---9/10---9---7---|-10----/-----/------/----|
H |-----0-7-0-7/8--0-7-0-7/8--0-7-0-5-0-|--8--/-----/-----/-------|
       pm  pm     pm  pm     pm  pm  pm


C#|-------------------------------------|-------------------------|
G#|-------------------------------------|-------------------------|
E |-------------------------------------|-------------------------|
H |-8/9---------------------------------|-------------------------|
F#|-6/7---9---9/10---9---9/10---9---7---|--5----/----5-------/----|
H |-----0-7-0-7/8--0-7-0-7/8--0-7-0-5-0-|--3--/------2----/-------|
       pm  pm     pm  pm     pm  pm  pm

C#|-------------------------------------|-----------------------------------|
G#|-------------------------------------|-----------------------------------|
E |-------------------------------------|-----------------------------------|
H |-8/9---------------------------------|-----------------------------9-9-9-|
F#|-6/7---9---9/10---9---9/10---9---7---|---------7-7-7-7-10-10-10-10-------|
H |-----0-7-0-7/8--0-7-0-7/8--0-7-0-5-0-|-8-8-8-8---------------------------|
       pm  pm     pm  pm     pm  pm  pm

C#|-------------------------------------|-------------------------|
G#|-------------------------------------|-------------------------|
E |-------------------------------------|-------------------------|
H |-8/9---------------------------------|-------------------------|
F#|-6/7---9---9/10---9---9/10---9---7---|--5----/----5-------/----|
H |-----0-7-0-7/8--0-7-0-7/8--0-7-0-5-0-|--3--/------2----/-------|
       pm  pm     pm  pm     pm  pm  pm

   Riff B                             x2
C#|-------------------|-----------------|
G#|-------------------|-----------------|
E |-------------------|-----------------|
H |-8/9---------------|-----------------|
F#|-6/7---------------|-----------------|
H |-----0-0-0-0-0-0-0-|-0-0-0-0-0-0-0-0-|


C#|------------------|-----------------|
G#|------------------|-----------------|
E |------------------|-----------------|
H |-8/9--------------|-----------------|
F#|-6/7-----9/10-----|-7/9-----9/10----|
H |-----0-0-7/8--0-0-|-5/7-0-0-7/8-0-0-|


   Riff C / Verse                     x2
C#|-------------------|-----------------|
G#|-------------------|-----------------|
E |-------------------|-----------------|
H |-8/9---------------|-----------------|
F#|-6/7---------------|-----------------|
H |-----0-0-0-0-0-0-0-|-0-0-0-0-0-0-0-0-|


C#|---------------------------------|------------------|
G#|---------------------------------|------------------|
E |---------------------------------|------------------|
H |-8/9-----9-------8/9-----9-------|------------------|
F#|-6/7-----7-------6/7-----7-------|-10----/--10----/-|
H |-----0-0---0-0-0-----0-0---0-0-0-|--8--/-----7--/---|

   Ref
C#|------------------0------|-------------------------|
G#|------------------0------|-------------------------|
E |------------------9------|-------------------------|
H |-----------------10------|-------------------------|
F#|-10----/-----/--------/--|--5----/----5-------/----|
H |--8--/-----/--------/----|--3--/------2----/-------|

petlica
 
Posty: 37
Rejestracja: 29 Sie 2012, 08:26

Re: Tabulatury

Postprzez Smok » 11 Mar 2019, 00:24

O. Dzięki, petlica!
Więc dokąd, dokąd ta wędrówka
Posmutniał król i zadął w róg
Przeciwnik straszy, pielgrzym idzie
A pyta zawsze Bóg
Awatar użytkownika
Smok
 
Posty: 5835
Rejestracja: 11 Maj 2011, 12:45
Miejscowość: Wschód

Re: Tabulatury

Postprzez Wichura » 11 Mar 2019, 22:42

O patrz ktoś szybciej to ogarnął i widzę, że parę rzeczy zrobił lepiej :D ale strój jakiś dziwny, bo chłopaki graja to w standard E i brakuje motywu na oktawach, który jest na solówce.
Wichura
 
Posty: 139
Rejestracja: 24 Lip 2013, 23:50

Re: Tabulatury

Postprzez tymson170 » 11 Mar 2019, 23:38

A solówkę dałby ktoś radę rozpracować? Myślę że warto też spróbować z solówkami z innych piosenek np. Księgowego bo nie widzialem zeby gdzies byly
tymson170
 
Posty: 1
Rejestracja: 04 Mar 2019, 21:41

Re: Tabulatury

Postprzez misiura » 15 Maj 2019, 13:31

Strój w OPTY PESY standard E. Fajny, prosty energetyczny riff. Idealnie do opty pesy pasuje intro z Battery Mety :) Ja już nie zaczynam grac tego kawałka inaczej ;)
przemek mam w dowodzie
Awatar użytkownika
misiura
 
Posty: 441
Rejestracja: 09 Lip 2015, 10:36
Miejscowość: Łódź

Poprzednia

Wróć do Zespół

Kto jest na forum

Użytkownicy przeglądający to forum: Brak zarejestrowanych użytkowników oraz 1 gość

cron