Tabulatury

Moderator: Kred

Re: Tabulatury

Postprzez Vojtii » 15 Paź 2018, 16:07

Dzięki.
Sorry ale w zeszłym tygodniu nie miałem czasu na Sieć ale mam nadzieje że w tym się uda.
"Nie mam blizn po kajdankach, napletek posiadam,
Na świat przyszedłem w czepku, nie pod ułańskim czakiem.
Po dekadzie wygnania - polskim jeszcze władam,
Proszę więc o dokument, że jestem Polakiem!"
Awatar użytkownika
Vojtii
 
Posty: 74
Rejestracja: 22 Sty 2018, 13:21
Miejscowość: Warszawa / Warschau / Варшава

Re: Tabulatury

Postprzez petlica » 18 Paź 2018, 08:59

Wrzucam 44dni.
Trochę inaczej rozpisane niż wcześniej. Kilku dźwięków wg mnie brakowało, ale generalnie prawie to samo.

Kod: Zaznacz wszystko
44 dni
tab by petlica

C#|------------------------------|----------------------------------|
G#|------------------------------|----------------------------------|
E |-------------------0----------|----------------------------------|
B |----------10-----------10-----|---------0--------------0---------|
F#|------12-------12----------12-|------5-----5--------7-----7------|
B |-0----------------------------|-3---------------5----------------|


C#|------------------------------|----------------------------------|
G#|------------------------------|----------------------------------|
E |-------------------0----------|----------------------------------|
B |----------10-----------10-----|---------0--------------0---------|
F#|------12-------12----------12-|------5-----5--------7-----7------|
B |-0----------------------------|-3---------------5-------------5--|


                                  x3
C#|-------------|-------------------||-5-----------------|
G#|-------------|-------------------||--3----------------|
E |-------------|-12-------14-------||---2---------------|
H |-------------|-------------------||----0--------------|
F#|-0-----------|-10-------12-------||-----0-------------|
H |-0-----------|-------------------||-------------------|


   Git 1                                                    x4
C#|-----------------------------|-----------------------------|
G#|-----------------------------|-----------------------------|
E |----------15-------15--------|-------14-----14----14-------|
H |-12~---------12-10-----10-12-|-12/15-----------17----------|
F#|-----------------------------|-----------------------------|
H |-----------------------------|-----------------------------|
  |                             |                             |
  |Git 2                        |                             |
C#|-----------------------------|-----------------------------|
G#|-----------------------------|-----------------------------|
E |-----------------------------|-----------------------------|
H |-8-------/------/------/-----|-0-----/-------/-------/-----|
F#|-8------/------/------/------|-0----/-------/-------/------|
H |-8-----/------/------/-------|-0---/-------/-------/-------|


   Git 1                                                                                        x2
C#|-----------|-----------|-----------|-----------|-----------|-----------|-----------|-----------|
G#|-----------|-----------|-----------|-----------|-----------|-----------|-----------|-----------|
E |-----------|-----------|-----------|-----------|-----------|-----------|-----------|-----------|
H |-19---/--/-|-17---/--/-|-15---/--/-|-14---/--/-|-10---/--/-|-12---/--/-|-15-/-14-/-|-14-/-12-/-|
F#|-15--/--/--|-15--/--/--|-12--/--/--|-12--/--/--|--8--/--/--|--8--/--/--|-12-/-12-/-|-10-/-10-/-|
H |-15-/--/---|-15-/--/---|-12-/--/---|-12-/--/---|--8-/--/---|--8-/--/---|-12-/-12-/-|-10-/-10-/-|
  |           |           |           |           |           |           |           |           |
  |Git 2      |           |           |           |           |           |           |           |
C#|-----------|-----------|-----------|-----------|-----------|-----------|-----------|-----------|
G#|-----------|-----------|-----------|-----------|-----------|-----------|-----------|-----------|
E |-----------|-----------|-----------|-----------|-----------|-----------|-----------|-----------|
H |-3----/--/-|-3----/--/-|-0----/--/-|-0----/--/-|-8----/--/-|-8----/--/-|-0----/--/-|-10---/--/-|
F#|-3---/--/--|-3---/--/--|-0---/--/--|-0---/--/--|-8---/--/--|-8---/--/--|-0---/--/--|-10--/--/--|
H |-3--/--/---|-3--/--/---|-0--/--/---|-0--/--/---|-8--/--/---|-8--/--/---|-0--/--/---|-10-/--/---|



   Git 1                x2
C#|-----------|-----------|
G#|-----------|-----------|
E |-----------|-----------|
H |-12-/-10-/-|-15---/----|
F#|--8-/--8-/-|-12--/-----|
H |--8-/--8-/-|-12-/------|
  |           |           |
  |Git 2      |           |
C#|-----------|-----------|
G#|-----------|-----------|
E |-----------|-----------|
H |-8----/--/-|-12---/--/-|
F#|-8---/--/--|-12--/--/--|
H |-8--/--/---|-12-/--/---|


pozdr

-- 18 Paź 2018, 06:58 --

Kod: Zaznacz wszystko
Silnalina
tab by petlica
Silnalina

d-|-------------|-------------|-------------|-------------|
a-|-12h15-------|-------------|-------------|-------------|
f-|-------------|-11h14-------|-11h12-------|-11p9--------|
c-|-------------|-------------|-------------|-------------|
G-|-------------|-------------|-------------|-------------|
D-|-------------|-------------|-------------|-------------|


                         x2
d-|-------------------------|--------------------------|-------------------------|
a-|-12h15-------------------|-12h15--------------------|-12h15-------------------|
f-|-------11h14-------11----|-------11h14-------11-12--|-------11h14-------11-9--|
c-|-------------12h14----9--|-------------12h14--------|-------------12h14-------|
G-|-------------------------|--------------------------|-------------------------|
D-|-------------------------|--------------------------|-------------------------|
petlica
 
Posty: 37
Rejestracja: 29 Sie 2012, 08:26

Re: Tabulatury

Postprzez nooken » 18 Paź 2018, 11:14

dziękować :)
Awatar użytkownika
nooken
 
Posty: 905
Rejestracja: 06 Cze 2011, 23:42
Miejscowość: Siedlce

Re: Tabulatury

Postprzez Vojtii » 18 Paź 2018, 21:20

Super!

-- 18 Paź 2018, 20:17 --

Ok, gotowe.
Sporo nad tym siedziałem, także to uszanujcie.
Nie jest to 1:1, dlatego czekam na poprawki.
Jakby wkradł się jakiś błąd, to mówcie.
Kod: Zaznacz wszystko
"Zerwali sieć" by Luxtorpeda
tab by Vojtii
strój: drop B/H (jak kto woli)

Riff-A
C#|--------------------------|--------------------------|--------------------------|--------------------------| Całość x2
G#|--------------------------|--------------------------|--------------------------|--------------------------|
E |--------------------------|--------------------------|--------------------------|--------------------------|
H |--------------------------|--------------------------|--------------------------|--------------------------|
F#|--10--11--11--10--11--10--|--10--11--11--10--11--10--|--10--11--11--10--11--10--|--10--11--11--10--15--16--|
H |--10--11--11--10--11--10--|--10--11--11--10--11--10--|--10--11--11--10--11--10--|--10--11--11--10--15--16--|
(Ten motyw można grać też na 3 strunach)
C#|--------------------------|--------------------|
G#|--------------------------|--------------------|
E |--------------------------|--------------------|
H |------------------15--16--|--------------------|
F#|--------------------------|--------------------|
H |--10--11--15--16----------|--x--x--x--x--x--x--|

                            PM...................



Riff-B (Verse)

C#|--------------------| x8
G#|--------------------|
E |--------------------|
H |--------------------|
F#|--1--2--2--1--2--1--|
H |--1--2--2--1--2--1--|
(ten również)
PM.....................

C#|--------------------|--------------------|--------------------|--------------------|
G#|--------------------|--------------------|--------------------|--------------------|
E |--------------------|--------------------|--------------------|--------------------|
H |--------------------|--------------------|--------------------|--------------------|
F#|--3--4--4--3--4--3--|--3--4--4--3--4--3--|--3--4--4--3--4--3--|--3--4--4--3--8--9--|
H |--3--4--4--3--4--3--|--3--4--4--3--4--3--|--3--4--4--3--4--3--|--3--4--4--3--8--9--|

PM...................................................................

C#|--------------------| x4
G#|--------------------|
E |--------------------|
H |--------------------|
F#|--1--2--2--1--2--1--|
H |--1--2--2--1--2--1--|

PM.....................





Riff-C (Ref)

C#|-----------------------------------------------------|---|  Całość x 4
G#|-----------------------------------------------------|---|
E |-----------------------------------------------------|---|
H |-11--11--11---13--13--13---14--14--14---16--16--16---|-4-|
F#|-x---x---x----x---x---x----x---x---x----x---x---x----|-4-|
H |-9---9---9----11--11--11---12--12--12---14--14--14---|-4-|
                                                (ten akord^ oczywiście jest dłużej)


Riff-D
                                   x3
C#|---------------------------------|---------------------------------|
G#|---------------------------------|---------------------------------|
E |---------------------------------|---------------------------------|
H |---------------------------------|---------------------------------|
F#|-10-10---10-10---10-10---10-10---|-12-12---12-12---12-12---12------|
H |-10-10---10-10---10-10---10-10---|-12-12---12-12---12-12---12------|


Solo background (akordy)

C#|-------------------------------------------------|-------------------------------------------------| Całość x2
G#|-------------------------------------------------|-------------------------------------------------|
E |-------------------------------------------------|-------------------------------------------------|
H |-------------------------------------------------|-------------------------------------------------|
F#|-12-12-12-12-12-12-12-12-10-10-10-10-10-10-10-10-|-14-14-14-14-14-14-14-14-12-12-12-12-12-12-12-12-|
H |-12-12-12-12-12-12-12-12-10-10-10-10-10-10-10-10-|-14-14-14-14-14-14-14-14-12-12-12-12-12-12-12-12-|
   (ilość uderzeń poglądowa)

C#|-------------------------------------------| x2
G#|-------------------------------------------|
E |-------------------------------------------|
H |-------------------------------------------|
F#|-10-10-10-10-10-10-10-10-7-7-12-12-7-7-7-7-|
H |-10-10-10-10-10-10-10-10-7-7-12-12-7-7-7-7-|
"Nie mam blizn po kajdankach, napletek posiadam,
Na świat przyszedłem w czepku, nie pod ułańskim czakiem.
Po dekadzie wygnania - polskim jeszcze władam,
Proszę więc o dokument, że jestem Polakiem!"
Awatar użytkownika
Vojtii
 
Posty: 74
Rejestracja: 22 Sty 2018, 13:21
Miejscowość: Warszawa / Warschau / Варшава

Re: Tabulatury

Postprzez nooken » 18 Paź 2018, 21:46

Ech co ja bym bez was zrobil:) dzieki
Awatar użytkownika
nooken
 
Posty: 905
Rejestracja: 06 Cze 2011, 23:42
Miejscowość: Siedlce

Re: Tabulatury

Postprzez petlica » 18 Paź 2018, 22:02

Myślę że jest ok.
Z tego co widziałem Panowie to inaczej łapią, chodzi mi o koniec Riff-u A
W Riffie C chyba czeski błąd przy zapisie się wdarł. Wszystko o jedną strunę w dół.
Dodał bym tam jeszcze pustą 6 strunę, fajniej brzmi. Dzięki i pozdr.
Kod: Zaznacz wszystko
Riff-A                     x3
C#|--------------------------|--------------------------|
G#|--------------------------|--------------------------|
E |--------------------------|------------------10--11--|
H |--------------------------|----------10--11--10--11--|
F#|--10--11--11--10--11--10--|--10--11--10--11----------|
H |--10--11--11--10--11--10--|--10--11------------------|



Riff-C (Ref)

C#|-----------------------------------------------------|---|
G#|-----------------------------------------------------|---|
E |-11--11--11---13--13--13---14--14--14---16--16--16---|---|
H |-x---x---x----x---x---x----x---x---x----x---x---x----|-4-|
F#|-9---9---9----11--11--11---12--12--12---14--14--14---|-4-|
H |-0---0---0-----0---0---0----0---0---0----0---0---0---|-4-|
petlica
 
Posty: 37
Rejestracja: 29 Sie 2012, 08:26

Re: Tabulatury

Postprzez Smok » 19 Paź 2018, 00:01

Dzięki, dzięki, dzięki!
Przepraszam, że nie pisałem wcześniej - ale nie miałem czasu ogrywać... ale już odkurzyłem gitarę :)
Więc dokąd, dokąd ta wędrówka
Posmutniał król i zadął w róg
Przeciwnik straszy, pielgrzym idzie
A pyta zawsze Bóg
Awatar użytkownika
Smok
 
Posty: 5913
Rejestracja: 11 Maj 2011, 12:45
Miejscowość: Wschód

Re: Tabulatury

Postprzez Vojtii » 19 Paź 2018, 16:45

Dzięki...
Rzeczywiście zagapiłem się z tym riffem c xD
To poprawka tego co wcześniej wrzuciłem (bo nie mogę edytować) ale może jest to grane trochę inaczej jak pisał petlica
Kod: Zaznacz wszystko
"Zerwali sieć" by Luxtorpeda
tab by Vojtii
strój: drop B/H (jak kto woli)

Riff-A
C#|--------------------------|--------------------------|--------------------------|--------------------------| Całość x2
G#|--------------------------|--------------------------|--------------------------|--------------------------|
E |--------------------------|--------------------------|--------------------------|--------------------------|
H |--------------------------|--------------------------|--------------------------|--------------------------|
F#|--10--11--11--10--11--10--|--10--11--11--10--11--10--|--10--11--11--10--11--10--|--10--11--11--10--15--16--|
H |--10--11--11--10--11--10--|--10--11--11--10--11--10--|--10--11--11--10--11--10--|--10--11--11--10--15--16--|
(Ten motyw można grać też na 3 strunach)
C#|--------------------------|--------------------|
G#|--------------------------|--------------------|
E |--------------------------|--------------------|
H |------------------15--16--|--------------------|
F#|--------------------------|--------------------|
H |--10--11--15--16----------|--x--x--x--x--x--x--|

                           PM...................



Riff-B (Verse)

C#|--------------------| x8
G#|--------------------|
E |--------------------|
H |--------------------|
F#|--1--2--2--1--2--1--|
H |--1--2--2--1--2--1--|
(ten również)
PM.....................

C#|--------------------|--------------------|--------------------|--------------------|
G#|--------------------|--------------------|--------------------|--------------------|
E |--------------------|--------------------|--------------------|--------------------|
H |--------------------|--------------------|--------------------|--------------------|
F#|--3--4--4--3--4--3--|--3--4--4--3--4--3--|--3--4--4--3--4--3--|--3--4--4--3--8--9--|
H |--3--4--4--3--4--3--|--3--4--4--3--4--3--|--3--4--4--3--4--3--|--3--4--4--3--8--9--|

PM...................................................................

C#|--------------------| x4
G#|--------------------|
E |--------------------|
H |--------------------|
F#|--1--2--2--1--2--1--|
H |--1--2--2--1--2--1--|

PM.....................





Riff-C (Ref)

C#|----------------------------------------------------|---|  Całość x 4
G#|----------------------------------------------------|---|
E |-11--11--11---13--13--13---14--14--14---16--16--16--|---|
H |-x---x---x----x---x---x----x---x---x----x---x---x---|-4-|
F#|-9---9---9----11--11--11---12--12--12---14--14--14--|-4-|
H |----------------------------------------------------|-4-|
                                                (ten akord^ oczywiście jest dłużej)

Riff-D
                               x3
C#|---------------------------------|---------------------------------|
G#|---------------------------------|---------------------------------|
E |---------------------------------|---------------------------------|
H |---------------------------------|---------------------------------|
F#|-10-10---10-10---10-10---10-10---|-12-12---12-12---12-12---12------|
H |-10-10---10-10---10-10---10-10---|-12-12---12-12---12-12---12------|


Solo background (akordy)

C#|-------------------------------------------------|-------------------------------------------------| Całość x2
G#|-------------------------------------------------|-------------------------------------------------|
E |-------------------------------------------------|-------------------------------------------------|
H |-------------------------------------------------|-------------------------------------------------|
F#|-12-12-12-12-12-12-12-12-10-10-10-10-10-10-10-10-|-14-14-14-14-14-14-14-14-12-12-12-12-12-12-12-12-|
H |-12-12-12-12-12-12-12-12-10-10-10-10-10-10-10-10-|-14-14-14-14-14-14-14-14-12-12-12-12-12-12-12-12-|
   (ilość uderzeń poglądowa)

C#|-------------------------------------------| x2
G#|-------------------------------------------|
E |-------------------------------------------|
H |-------------------------------------------|
F#|-10-10-10-10-10-10-10-10-7-7-12-12-7-7-7-7-|
H |-10-10-10-10-10-10-10-10-7-7-12-12-7-7-7-7-|
"Nie mam blizn po kajdankach, napletek posiadam,
Na świat przyszedłem w czepku, nie pod ułańskim czakiem.
Po dekadzie wygnania - polskim jeszcze władam,
Proszę więc o dokument, że jestem Polakiem!"
Awatar użytkownika
Vojtii
 
Posty: 74
Rejestracja: 22 Sty 2018, 13:21
Miejscowość: Warszawa / Warschau / Варшава

Re: Tabulatury

Postprzez petlica » 24 Lis 2018, 14:01

Dorzucam trochę przeredagowne Pod Sufitem
Kod: Zaznacz wszystko
POD SUFITEM
tab by petlica
C#|--------------------------------|
G#|--------------------------------|
E |--------------------------------|
H |--------------------------------|
F#|-2-3-2-0-2---2-3-2--2-2-2-2-2-2-|
H |-2-3-2-0-2---2-3-2--2-2-2-2-2-2-|
    pm.............................


C#|--------------------------------|
G#|--------------------------------|
E |--------------------------------|
H |--------------------------------|
F#|-2-3-2-0-2---2-3-2--2-2-2-2-2-2-|
H |-2-3-2-0-2---2-3-2--2-2-2-2-2-2-|
                      pm...........


C#|--------------------------------|
G#|--------------------------------|
E |--------------------------------|
H |--------------------------------|
F#|--------------------------------|
H |-2-3-2-0-2---2-3-2--2b3r2-------|


C#|--------------------------------|
G#|--------------------------------|
E |--------------------------------|
H |--------------------------------|
F#|-5-6-5-3-5---5-6-5--5-5-5-5-5-5-|
H |-5-6-5-3-5---5-6-5--5-5-5-5-5-5-|
                      pm...........



C#|-------------------------------------||-------------------------------------|
G#|-------------------------------------||-------------------------------------|
E |-------------------------------------||-------------------------------------|
H |-------------5-----------------------||-------------3-----------------------|
F#|---------------7-5-7---7-7p5---5-----||---------------5-3-5---5-5p3---3-----|
H |-0---0-5h6h7-----------------7---7-5-||-0---0-3h4h5-----------------5---5-3-|



C#|------------------------------------|
G#|------------------------------------|
E |------------------------------------|
H |------------------------------------|
F#|------13------12-----10-----8-8--8--|
H |-0-12----0-10----0-8----0-7---------|


C#|---------------|------------------------------------|
G#|---------------|------------------------------------|
E |---------------|------------------------------------|
H |-8---/-3---/---|------------------------------------|
F#|-8--/--3--/----|------13------12-----10-----8-8--8--|
H |-8-/---3-/-----|-0-12----0-10----0-8----0-7---------|



Pozdr
petlica
 
Posty: 37
Rejestracja: 29 Sie 2012, 08:26

Re: Tabulatury

Postprzez nooken » 28 Lis 2018, 17:05

Dzięki
Awatar użytkownika
nooken
 
Posty: 905
Rejestracja: 06 Cze 2011, 23:42
Miejscowość: Siedlce

Re: Tabulatury

Postprzez Vojtii » 29 Lis 2018, 17:20

Skoro skończyły się nam utwory Luxów, to opracujemy coś innego?
"Nie mam blizn po kajdankach, napletek posiadam,
Na świat przyszedłem w czepku, nie pod ułańskim czakiem.
Po dekadzie wygnania - polskim jeszcze władam,
Proszę więc o dokument, że jestem Polakiem!"
Awatar użytkownika
Vojtii
 
Posty: 74
Rejestracja: 22 Sty 2018, 13:21
Miejscowość: Warszawa / Warschau / Варшава

Re: Tabulatury

Postprzez Kred » 29 Lis 2018, 21:23

Ale to nie w tym wątku.
Na dobranoc dałam Klarze buziaka w czoło i powiedziałam, że to od Ciebie. Tak słodko przymrużyła oczy, uśmiechnęła się i wtuliła mocno... Taki spokój nagle zagościł na jej twarzy...
Awatar użytkownika
Kred
 
Posty: 44099
Rejestracja: 14 Maj 2011, 02:38
Miejscowość: Poznań

Re: Tabulatury

Postprzez Vojtii » 30 Lis 2018, 18:27

To w którym, jeśli mogę się spytać?
"Nie mam blizn po kajdankach, napletek posiadam,
Na świat przyszedłem w czepku, nie pod ułańskim czakiem.
Po dekadzie wygnania - polskim jeszcze władam,
Proszę więc o dokument, że jestem Polakiem!"
Awatar użytkownika
Vojtii
 
Posty: 74
Rejestracja: 22 Sty 2018, 13:21
Miejscowość: Warszawa / Warschau / Варшава

Re: Tabulatury

Postprzez Kred » 30 Lis 2018, 18:55

Zobacz w dziale Muzyka, a jeśli nie ma - załóż. ;)
Dla wyjaśnienia: niniejszy wątek znajduje się w dziale Zespół, więc automatycznie dotyczy tabulatur do utworów Luxtorpedy.
Na dobranoc dałam Klarze buziaka w czoło i powiedziałam, że to od Ciebie. Tak słodko przymrużyła oczy, uśmiechnęła się i wtuliła mocno... Taki spokój nagle zagościł na jej twarzy...
Awatar użytkownika
Kred
 
Posty: 44099
Rejestracja: 14 Maj 2011, 02:38
Miejscowość: Poznań

Re: Tabulatury

Postprzez Vojtii » 02 Gru 2018, 00:07

Dobra, rozumiem.
Dzięki wielkie.
"Nie mam blizn po kajdankach, napletek posiadam,
Na świat przyszedłem w czepku, nie pod ułańskim czakiem.
Po dekadzie wygnania - polskim jeszcze władam,
Proszę więc o dokument, że jestem Polakiem!"
Awatar użytkownika
Vojtii
 
Posty: 74
Rejestracja: 22 Sty 2018, 13:21
Miejscowość: Warszawa / Warschau / Варшава

Re: Tabulatury

Postprzez Wichura » 27 Lut 2019, 16:18

Gdyby ktoś już teraz chciał zmierzyć się z Opty Pesy to nagrałem film, na którym wszystko widać co i jak do tego zaimprowizowałem swoją solówkę ;) , ale uprzedzam - pod względem rytmicznym i strukturalnym Opty Pesy to naprawdę niezłe wyzwanie - metronom mi naliczył 194 bpm.. ciekawe na ile to prawda ;) Prowizoryczne taby w gp już robię, więc później podrzucę co mi się udało rozpracować :)
Wichura
 
Posty: 139
Rejestracja: 24 Lip 2013, 23:50

Re: Tabulatury

Postprzez Smok » 04 Mar 2019, 16:59

Kred napisał(a):Zobacz w dziale Muzyka, a jeśli nie ma - załóż

Jest tutaj:
viewtopic.php?f=8&t=1550

Wichura napisał(a): Prowizoryczne taby w gp już robię, więc później podrzucę co mi się udało rozpracować

Hej, Wichura. Jeśli to nie problem, to fajnie gdybyś taby w notatniku rozpisał... w sensie w pliku txt, a nie gp...
Więc dokąd, dokąd ta wędrówka
Posmutniał król i zadął w róg
Przeciwnik straszy, pielgrzym idzie
A pyta zawsze Bóg
Awatar użytkownika
Smok
 
Posty: 5913
Rejestracja: 11 Maj 2011, 12:45
Miejscowość: Wschód

Re: Tabulatury

Postprzez Jaahquubel » 04 Mar 2019, 17:45

Pozwoliłem sobie wyedytować wpis Wichury, żeby film był widoczny.
Wypisz, wymaluj, Wujek Dobra Rada.
085 | 135 | 188 | 360 | 574

Leguramin „Najlepszej dziesiątki”

Wstawianie filmów:
Kod: Zaznacz wszystko
[youtube]http://www.youtube.com/watch?v=TpNc6uh0jbk[/youtube]

Awatar użytkownika
Jaahquubel
 
Posty: 6724
Rejestracja: 18 Lut 2012, 22:08
Miejscowość: Varrez, Tracona

Re: Tabulatury

Postprzez Wichura » 06 Mar 2019, 02:46

Smok napisał(a):Hej, Wichura. Jeśli to nie problem, to fajnie gdybyś taby w notatniku rozpisał... w sensie w pliku txt, a nie gp...


Zawsze mogę wyeksportować do PDF, ale fakt trochę dziwi mnie fakt, że więcej jest txt tabów, które nie mają ani notacji rytmicznej ani określonego tempa.. ale ok ;)
Wichura
 
Posty: 139
Rejestracja: 24 Lip 2013, 23:50

Re: Tabulatury

Postprzez Smok » 06 Mar 2019, 12:51

Wichura napisał(a): dziwi mnie fakt, że więcej jest txt tabów, które nie mają ani notacji rytmicznej ani określonego tempa

To starożytna naleciałość...
...a po co komu notacje rytmiczne?? ;)
Więc dokąd, dokąd ta wędrówka
Posmutniał król i zadął w róg
Przeciwnik straszy, pielgrzym idzie
A pyta zawsze Bóg
Awatar użytkownika
Smok
 
Posty: 5913
Rejestracja: 11 Maj 2011, 12:45
Miejscowość: Wschód

PoprzedniaNastępna

Wróć do Zespół

Kto jest na forum

Użytkownicy przeglądający to forum: Brak zarejestrowanych użytkowników oraz 3 gości

cron