Tabulatury

Moderator: Kred

Re: Tabulatury

Postprzez jakub97sc » 22 Lis 2016, 20:10

A właśnie - na najnowszej płycie wszystkie utwory (poza wspomnianym), są grane w Drop B, tak? :)
Image
Awatar użytkownika
jakub97sc
 
Posty: 166
Rejestracja: 22 Gru 2015, 00:27
Miejscowość: Sosnowiec

Re: Tabulatury

Postprzez misiura » 22 Lis 2016, 22:24

Silnalina jest w D Standard.
przemek mam w dowodzie
Awatar użytkownika
misiura
 
Posty: 428
Rejestracja: 09 Lip 2015, 10:36
Miejscowość: Łódź

Re: Tabulatury

Postprzez Kubson » 25 Cze 2017, 10:54

Ma ktoś z was opracowane taby do Dziury po ospie ? Przynajmniej motyw grany przy zwrotce Hansa :roll:
Awatar użytkownika
Kubson
 
Posty: 40
Rejestracja: 16 Cze 2017, 23:11

Re: Tabulatury

Postprzez misiura » 29 Cze 2017, 10:13

Tutaj ładnie widać jak się to gra.
przemek mam w dowodzie
Awatar użytkownika
misiura
 
Posty: 428
Rejestracja: 09 Lip 2015, 10:36
Miejscowość: Łódź

Re: Tabulatury

Postprzez Kubson » 29 Cze 2017, 11:59

To chyba mam coś ze wzrokiem :shock:
Awatar użytkownika
Kubson
 
Posty: 40
Rejestracja: 16 Cze 2017, 23:11

Re: Tabulatury

Postprzez misiura » 29 Cze 2017, 19:20

Ale słuch masz? :)

-- 29 Cze 2017, 18:17 --

Tabów pisać nie umiem, masz tu na szybko nagrany motyw przy zwrotce Hansa, jeśli jest źle niech ktoś mnie poprawi :) Dwa pierwsze dźwięki każdego fragmentu to struna 5 i 4 na tym samym progu.


https://youtu.be/rfY5wkucwM4
przemek mam w dowodzie
Awatar użytkownika
misiura
 
Posty: 428
Rejestracja: 09 Lip 2015, 10:36
Miejscowość: Łódź

Re: Tabulatury

Postprzez Kubson » 03 Lip 2017, 19:25

Dzięki wielkie za nagranie ;) :D

-- 03 Lip 2017, 19:25 --

Wydaje mi się że każdy drugi dźwięk fragmentu na strunie 4 jest grany podwójnie
Awatar użytkownika
Kubson
 
Posty: 40
Rejestracja: 16 Cze 2017, 23:11

Re: Tabulatury

Postprzez misiura » 04 Lip 2017, 07:08

Też się na dym zastanawiałem, chyba w którymś momencie tak jest, ale trudno wychwycić bo Drężmak wtedy też gra i się to zlewa trochę ;)
przemek mam w dowodzie
Awatar użytkownika
misiura
 
Posty: 428
Rejestracja: 09 Lip 2015, 10:36
Miejscowość: Łódź

Re: Tabulatury

Postprzez Kubson » 04 Lip 2017, 10:48

W każdym razie wielkie dzięki za nagranie ;)
Awatar użytkownika
Kubson
 
Posty: 40
Rejestracja: 16 Cze 2017, 23:11

Re: Tabulatury

Postprzez Vojtii » 07 Lip 2018, 18:48

Ej pomocy te tabulatury od Kreda na początku jak mam otworzyć? (bo mi jakieś hieroglify się wyświetlają)

-- 07 Lip 2018, 17:48 --

Muszę zainstalować otwieracz RAR?
"Drży ze strachu czerń kozacza
Dęba stają osełedce
Kniaź Jarema się nawraca
prawosławnej wiary nie chce!"
Awatar użytkownika
Vojtii
 
Posty: 43
Rejestracja: 22 Sty 2018, 13:21
Miejscowość: Warszawa

Re: Tabulatury

Postprzez Kred » 08 Lip 2018, 10:47

Tak.
Kred
 
Posty: 42960
Rejestracja: 14 Maj 2011, 02:38
Miejscowość: Poznań

Re: Tabulatury

Postprzez Vojtii » 09 Lip 2018, 11:56

Problem już załatwiony ale dzięki za dobre chęci :D
"Drży ze strachu czerń kozacza
Dęba stają osełedce
Kniaź Jarema się nawraca
prawosławnej wiary nie chce!"
Awatar użytkownika
Vojtii
 
Posty: 43
Rejestracja: 22 Sty 2018, 13:21
Miejscowość: Warszawa

Re: Tabulatury

Postprzez misiura » 24 Lip 2018, 14:24

Patrzę teraz na ten mój filmik - oczywiście źle to grałem. Jak większość :D
przemek mam w dowodzie
Awatar użytkownika
misiura
 
Posty: 428
Rejestracja: 09 Lip 2015, 10:36
Miejscowość: Łódź

Re: Tabulatury

Postprzez Vojtii » 28 Sie 2018, 14:39

Cześć.
Prawdopodobnie niedługo będę mógł opracować taby do "Iglo".
Czy ktoś jest chętny?
"Drży ze strachu czerń kozacza
Dęba stają osełedce
Kniaź Jarema się nawraca
prawosławnej wiary nie chce!"
Awatar użytkownika
Vojtii
 
Posty: 43
Rejestracja: 22 Sty 2018, 13:21
Miejscowość: Warszawa

Re: Tabulatury

Postprzez Smok » 28 Sie 2018, 14:40

Ja przyję chętnie każdą ilość tabów z nowej płyty... i tej starej (bo jeszcze tak na serio nie wszystko jest rozpisane dobrze).... Więc czekam :)
Więc dokąd, dokąd ta wędrówka
Posmutniał król i zadął w róg
Przeciwnik straszy, pielgrzym idzie
A pyta zawsze Bóg
Awatar użytkownika
Smok
 
Posty: 5687
Rejestracja: 11 Maj 2011, 12:45
Miejscowość: Wschód

Re: Tabulatury

Postprzez Vojtii » 28 Sie 2018, 17:59

Ok, postaram się jak najszybciej.
"Drży ze strachu czerń kozacza
Dęba stają osełedce
Kniaź Jarema się nawraca
prawosławnej wiary nie chce!"
Awatar użytkownika
Vojtii
 
Posty: 43
Rejestracja: 22 Sty 2018, 13:21
Miejscowość: Warszawa

Re: Tabulatury

Postprzez nooken » 28 Sie 2018, 23:27

Oj ja takowoż, fajnie się udało nabierać tabu do poprzednich płyt, a przy ostatniej strasznie słabo to idzie. Gdybym tylko miał lepsze ucho to sam chętnie bym pomógł:/ czekamy w takim razie na iglo

-- 28 Sie 2018, 23:27 --

W sumie po weekendzie będę miał nowe wiosło do drop b przestrojone to może uda mi się coś po youtubach obczaić i rozpisac....
Awatar użytkownika
nooken
 
Posty: 887
Rejestracja: 06 Cze 2011, 23:42
Miejscowość: Siedlce

Re: Tabulatury

Postprzez Vojtii » 29 Sie 2018, 12:54

Zaczynam pisanie.
Tylko ostrzegam, to nie będzie identyczne jak w orginale, poza tym to moja pierwsza tabulatura, więc oszczędźcie mnie.

-- 29 Sie 2018, 11:54 --

Bicie i solo niech każdy sobie ogarnie indywidualnie. :flyv:
Długo nad tym siedziałem, ale jestem dumny z tego dzieła. :D

Kod: Zaznacz wszystko
Luxtorpeda - "IGLO"
by Vojtii
dla Luxforum

Od 0:00 do 0:27:
C#|---------------------------------------------------|---------------------------------------------------|
G#|---------------------------------------------------|---------------------------------------------------|
E |-12-9-------12-8-------12-19--------17-------------|-12-9-------12-8-------12-19--------17-------------|
H |-x--x-------x--x-------x--x---------x--------------|-x--x-------x--x-------x--x---------x--------------|
F#|-10-7-------10-6-------10-17--------15-------------|-10-7-------10-6-------10-17--------15-------------|
H |---------------------------------------------------|---------------------------------------------------|

C#|---------------------------------------------------|---------------------------------------------------|
G#|---------------------------------------------------|---------------------------------------------------|
E |-12-14------9-8-------12-19---------17-------------|-12-14---------13-------12-19--------17------------|
H |-x--x-------x-x-------x--x----------x--------------|-x--x----------x--------x--x---------x-------------|
F#|-10-12------7-6-------10-17---------15-------------|-10-12---------11-------10-17--------15------------|
H |---------------------------------------------------|---------------------------------------------------|

C#|---------------------------------------------------|
G#|---------------------------------------------------|
E |-19-17-19-17-19-17-19-17-21-19-21-19-21-19-17-16---|
H |-x--x--x--x--x--x--x--x--x--x--x--x--x--x--x--x----|
F#|-17-15-17-15-17-15-17-15-19-17-19-17-19-17-15-14---|
H |---------------------------------------------------|

Od 0:27 do 0:47:
C#|---------------------------------------------------|---------------------------------------------------|
G#|---------------------------------------------------|---------------------------------------------------|
E |---------------------------------------7-----------|---------------------------------------7-----------|
H |-12----------------7-12----------------x-----------|-12----------------7-12----------------x-----------|
F#|-9-----------------5-8-----------------5-----------|-9-----------------5-8-----------------5-----------|
H |---------------------------------------0-----------|---------------------------------------0-----------|

C#|---------------------------------------------------|---------------------------------------------------|
G#|---------------------------------------------------|---------------------------------------------------|
E |---------------------------------------7-----------|---------------------------------------7-----------|
H |-12----------------7-12----------------x-----------|-12----------------7-12----------------x-----------|
F#|-9-----------------5-8-----------------5-----------|-9-----------------5-8-----------------5-----------|
H |---------------------------------------0-----------|---------------------------------------0-----------|

Od 0:47 do 1:08:
C#|---------------------------------------------------|---------------------------------------------------|
G#|---------------------------------------------------|---------------------------------------------------|
E |------------------------------------------------0--|------------------------------------------------0--|
H |---------------------3-----------------4-4p0----0--|---------------------3-----------------4-4p0----0--|
F#|-5-------------------3-----------------------3-----|-5-------------------3-----------------------3-----|
H |-0-------------------3-----------------------------|-0-------------------3-----------------------------|

C#|---------------------------------------------------|---------------------------------------------------|
G#|---------------------------------------------------|---------------------------------------------------|
E |------------------------------------------------0--|------------------------------------------------0--|
H |---------------------3-----------------4-4p0----0--|---------------------3-----------------4-4p0----0--|
F#|-5-------------------3-----------------------3-----|-5-------------------3-----------------------3-----|
H |-0-------------------3-----------------------------|-0-------------------3-----------------------------|

Od 1:08 do 1:33:
C#|---------------------------------------------------|---------------------------------------------------|
G#|---------------------------------------------------|---------------------------------------------------|
E |----9-------12-8-------12-19--------17-------------|-12-9-------12-8-------12-19--------17-------------|
H |----x-------x--x-------x--x---------x--------------|-x--x-------x--x-------x--x---------x--------------|
F#|----7-------10-6-------10-17--------15-------------|-10-7-------10-6-------10-17--------15-------------|
H |---------------------------------------------------|---------------------------------------------------|

C#|---------------------------------------------------|---------------------------------------------------|
G#|---------------------------------------------------|---------------------------------------------------|
E |-12-14------9-8-------12-19---------17-------------|-12-14---------13-------12-19--------17------------|
H |-x--x-------x-x-------x--x----------x--------------|-x--x----------x--------x--x---------x-------------|
F#|-10-12------7-6-------10-17---------15-------------|-10-12---------11-------10-17--------15------------|
H |---------------------------------------------------|---------------------------------------------------|

C#|---------------------------------------------------|
G#|---------------------------------------------------|
E |-19-17-19-17-19-17-19-17-21-19-21-19-21-19-17-16---|
H |-x--x--x--x--x--x--x--x--x--x--x--x--x--x--x--x----|
F#|-17-15-17-15-17-15-17-15-19-17-19-17-19-17-15-14---|
H |---------------------------------------------------|

Od 1:33 do 1:43:
C#|---------------------------------------------------|---------------------------------------------------|
G#|---------------------------------------------------|---------------------------------------------------|
E |--------------------------------------07---7---7---|---------------------------------------------------|
H |-12----------------7-12---------------0x---x---x---|-12----------------7-12----------------------------|
F#|-9-----------------5-8----------------05---5---5---|-9-----------------5-8-----------------------------|
H |---------------------------------------------------|---------------------------------------17/---------|

Od 1:43 do 2:03:
C#|---------------------------------------------------|---------------------------------------------------|
G#|---------------------------------------------------|---------------------------------------------------|
E |---------------------------------------------------|---------------------------------------------------|
H |---------------------------------------------------|-3----------------------8------------7---------6---|
F#|-5----------------------5--------------------------|-3----------------------8------------7---------6---|
H |-0----------------------0--------------------------|-3----------------------8------------7---------6---|

C#|---------------------------------------------------|---------------------------------------------------|
G#|---------------------------------------------------|---------------------------------------------------|
E |---------------------------------------------------|---------------------------------------------------|
H |---------------------------------------------------|-3----------------------8------------7---------6---|
F#|-5----------------------5--------------------------|-3----------------------8------------7---------6---|
H |-0----------------------0--------------------------|-3----------------------8------------7---------6---|

Od 2:03 do 2:13:
C#|---------------------------------------------------|---------------------------------------------------|
G#|---------------------------------------------------|---------------------------------------------------|
E |---------------------------------------------------|---------------------------------------------------|
H |-15----------------------10------------3-----------|-15----------------------10------------3-----------|
F#|-12----------------------10------------3-----------|-12----------------------10------------3-----------|
H |-12----------------------10------------3-----------|-12----------------------10------------3-----------|

Od 2:13 do 2:38:
C#|---------------------------------------------------|---------------------------------------------------|
G#|---------------------------------------------------|---------------------------------------------------|
E |----9-------12-8-------12-19--------17-------------|-12-9-------12-8-------12-19--------17-------------|
H |----x-------x--x-------x--x---------x--------------|-x--x-------x--x-------x--x---------x--------------|
F#|----7-------10-6-------10-17--------15-------------|-10-7-------10-6-------10-17--------15-------------|
H |---------------------------------------------------|---------------------------------------------------|

C#|---------------------------------------------------|---------------------------------------------------|
G#|---------------------------------------------------|---------------------------------------------------|
E |-12-14------9-8-------12-19---------17-------------|-12-14---------13-------12-19--------17------------|
H |-x--x-------x-x-------x--x----------x--------------|-x--x----------x--------x--x---------x-------------|
F#|-10-12------7-6-------10-17---------15-------------|-10-12---------11-------10-17--------15------------|
H |---------------------------------------------------|---------------------------------------------------|

C#|---------------------------------------------------|
G#|---------------------------------------------------|
E |-19-17-19-17-19-17-19-17-21-19-21-19-21-19-17-16---|
H |-x--x--x--x--x--x--x--x--x--x--x--x--x--x--x--x----|
F#|-17-15-17-15-17-15-17-15-19-17-19-17-19-17-15-14---|
H |---------------------------------------------------|

Od 2:38 do 3:08
C#|---------------------------------------------------|---------------------------------------------------|
G#|---------------------------------------------------|---------------------------------------------------|
E |-17--------------------17/19/17/16-----------------|-16/17/16/15-------------17/16/15/14---------------|
H |-x---------------------x-/x-/x-/x------------------|-x-/x-/x-/x--------------x-/x-/x-/x----------------|
F#|-15--------------------15/17/15/14-----------------|-14/15/14/13-------------15/14/13/12---------------|
H |---------------------------------------------------|---------------------------------------------------|

C#|---------------------------------------------------|---------------------------------------------------|
G#|---------------------------------------------------|---------------------------------------------------|
E |-17--------------------17/19/17/16-----------------|-16/17/16/15-------------17/16/15/14---------------|
H |-x---------------------x-/x-/x-/x------------------|-x-/x-/x-/x--------------x-/x-/x-/x----------------|
F#|-15--------------------15/17/15/14-----------------|-14/15/14/13-------------15/14/13/12---------------|
H |---------------------------------------------------|---------------------------------------------17/---|

Od 3:08 do 3:36:
C#|---------------------------------------------------|---------------------------------------------------|
G#|---------------------------------------------------|---------------------------------------------------|
E |---------------------------------------------------|---------------------------------------------------|
H |---------------------------------------------------|---------------------------------------------------|
F#|----7-------10-6-------10-3--------0---------------|-10-7-------10-6-------10-3---------0--------------|
H |---------------------------------------------------|---------------------------------------------------|

C#|---------------------------------------------------|---------------------------------------------------|
G#|---------------------------------------------------|---------------------------------------------------|
E |---------------------------------------------------|---------------------------------------------------|
H |---------------------------------------------------|---------------------------------------------------|
F#|-10-12------7-6-------10-3---------0---------------|-10-12------12-11-------10-3-----------------------|
H |---------------------------------------------------|---------------------------------------------------|

Od 3:36 do 3:56:
C#|---------------------------------------------------|---------------------------------------------------|
G#|---------------------------------------------------|---------------------------------------------------|
E |---------------------------------------------------|---------------------------------------------------|
H |---------------------------------------------------|-3----------------------8------------7---------6---|
F#|-5----------------------5--------------------------|-3----------------------8------------7---------6---|
H |-0----------------------0--------------------------|-3----------------------8------------7---------6---|

C#|---------------------------------------------------|---------------------------------------------------|
G#|---------------------------------------------------|---------------------------------------------------|
E |---------------------------------------------------|---------------------------------------------------|
H |---------------------------------------------------|-3----------------------8------------7---------6---|
F#|-5----------------------5--------------------------|-3----------------------8------------7---------6---|
H |-0----------------------0--------------------------|-3----------------------8------------7---------6---|

Od 3:56 do 4:06:
C#|---------------------------------------------------|---------------------------------------------------|
G#|---------------------------------------------------|---------------------------------------------------|
E |---------------------------------------------------|---------------------------------------------------|
H |-15----------------------10------------3-----------|-15----------------------10------------3-----------|
F#|-12----------------------10------------3-----------|-12----------------------10------------3-----------|
H |-12----------------------10------------3-----------|-12----------------------10------------3-----------|

od 4:06 do 4:26:
C#|---------------------------------------------------|---------------------------------------------------|
G#|---------------------------------------------------|---------------------------------------------------|
E |------------------------------------------------0--|------------------------------------------------0--|
H |---------------------3-----------------4-4p0----0--|---------------------3-----------------4-4p0----0--|
F#|-5-------------------3-----------------------3-----|-5-------------------3-----------------------3-----|
H |-0-------------------3-----------------------------|-0-------------------3-----------------------------|

C#|---------------------------------------------------|---------------------------------------------------|
G#|---------------------------------------------------|---------------------------------------------------|
E |------------------------------------------------0--|------------------------------------------------0--|
H |---------------------3-----------------4-4p0----0--|---------------------3-----------------4-4p0----0--|
F#|-5-------------------3-----------------------3-----|-5-------------------3-----------------------3-----|
H |-0-------------------3-----------------------------|-0-------------------3-----------------------------|


Przejście do utworu "Dziury po ospie" pozostawiam Wam.
Pozdro,
Vojtii.
"Drży ze strachu czerń kozacza
Dęba stają osełedce
Kniaź Jarema się nawraca
prawosławnej wiary nie chce!"
Awatar użytkownika
Vojtii
 
Posty: 43
Rejestracja: 22 Sty 2018, 13:21
Miejscowość: Warszawa

Re: Tabulatury

Postprzez MarekM » 29 Sie 2018, 13:34

To ja tak na zachęte mam motyw z "Dziur" właśnie, grany na cleanie pod zwrotką Hansa
Kod: Zaznacz wszystko
C#|--------------------------------------------------------------
G#|--------------------------------------------------------------
E |--------------------------------------------------------------
H |------5-7s8------5-7b-5-0--------1-3s5---------1-3-1-010---0--
F#|----5----------5---------------1-------------1-----------3----
H |--5----------5---------------1-------------1------------------


I dalej już się poddałem.
Awatar użytkownika
MarekM
 
Posty: 132
Rejestracja: 13 Kwi 2013, 16:42
Miejscowość: Wrocław

Re: Tabulatury

Postprzez Vojtii » 29 Sie 2018, 13:41

Może wspólnymi siłami uda nam się rozpracować Dziury.
"Drży ze strachu czerń kozacza
Dęba stają osełedce
Kniaź Jarema się nawraca
prawosławnej wiary nie chce!"
Awatar użytkownika
Vojtii
 
Posty: 43
Rejestracja: 22 Sty 2018, 13:21
Miejscowość: Warszawa

PoprzedniaNastępna

Wróć do Zespół

Kto jest na forum

Użytkownicy przeglądający to forum: Brak zarejestrowanych użytkowników oraz 1 gość

cron