Tabulatury

Moderator: Kred

Re: Tabulatury

Postprzez nooken » 29 Sie 2018, 15:47

I o to właśnie chodziło:) nareszcie coś ruszyło w temacie tabow. Dzięki chłopaki, ja w przyszłym tygodniu postaram się coś naskrobać
Awatar użytkownika
nooken
 
Posty: 890
Rejestracja: 06 Cze 2011, 23:42
Miejscowość: Siedlce

Re: Tabulatury

Postprzez MarekM » 29 Sie 2018, 16:10

Vojtii napisał(a):Może wspólnymi siłami uda nam się rozpracować Dziury.

We weekend postaram się nad tym przysiąść.
Awatar użytkownika
MarekM
 
Posty: 140
Rejestracja: 13 Kwi 2013, 16:42
Miejscowość: Wrocław

Re: Tabulatury

Postprzez Vojtii » 30 Sie 2018, 11:04

Jak znajdę czas to też coś zdziałam.

-- 30 Sie 2018, 10:04 --

Moja wersja dziur:
Załączniki
dziury.PNG
" Szykujcie bracia amunicję na święta
To Boże Narodzenie będą długo pamiętać! "
Awatar użytkownika
Vojtii
 
Posty: 61
Rejestracja: 22 Sty 2018, 13:21
Miejscowość: Warszawa / Warschau / Варшава

Re: Tabulatury

Postprzez misiura » 30 Sie 2018, 13:46

Ja żem ostatnio solo do Iglo prawie rozpracował. Tylko końcówka mi tam została podczas której nie wiem co się dzieje ;)
przemek mam w dowodzie
Awatar użytkownika
misiura
 
Posty: 428
Rejestracja: 09 Lip 2015, 10:36
Miejscowość: Łódź

Re: Tabulatury

Postprzez Vojtii » 30 Sie 2018, 14:00

To jak ci się uda to będziemy mieli całe Iglo :D
" Szykujcie bracia amunicję na święta
To Boże Narodzenie będą długo pamiętać! "
Awatar użytkownika
Vojtii
 
Posty: 61
Rejestracja: 22 Sty 2018, 13:21
Miejscowość: Warszawa / Warschau / Варшава

Re: Tabulatury

Postprzez petlica » 20 Wrz 2018, 20:20

Cześć
wrzucam Iglo w trochę zmienionej wersji.
Kod: Zaznacz wszystko
Luxtorpeda - Iglo
tab by petlica
Intro

   Riff A (Refren)
C#|-------------------------------------------|-------------------------------------------|
G#|-------------------------------------------|-------------------------------------------|
E |-12-9---/---12-8---/---12-19---/--17---/---|-12-9---/---12-8---/---12-19---/--17---/---|
H |-10-9--/----12-8--/----12--x--/----x--/----|-10-9--/----12-8--/----12--x--/----x--/----|
F#|-10-7-/-----10-6-/-----10-17-/----15-/-----|-10-7-/-----10-6-/-----10-17-/----15-/-----|
H |-------------------------------------------|-------------------------------------------|


C#|-------------------------------------------|-------------------------------------------|
G#|-------------------------------------------|-------------------------------------------|
E |-12-14---/--9-8---/---12-19---/---17---/---|-12-14---/---13---/---12-19---/----17---/--|
H |-12-14--/---9-8--/----12-x---/-----x--/----|-12-14--/----13--/----12--x--/------x--/---|
F#|-10-12-/----7-6-/-----10-17-/-----15-/-----|-10-12-/-----11-/-----10-17-/------15-/----|
H |-------------------------------------------|-------------------------------------------|


C#|---------------------------------------------------|
G#|---------------------------------------------------|
E |-19-17-19-17-19-17-19-17-21-19-21-19-21-19-17-16---|
H |-x--x--x--x--x--x--x--x--x--x--x--x--x--x--x--x----|
F#|-17-15-17-15-17-15-17-15-19-17-19-17-19-17-15-14---|
H |---------------------------------------------------|
    Tutaj poglądowo bo tych uderzeń / powtórzeń jest więcej


   Riff B                                                       x3
C#|-------------------------------|-------------------------------|
G#|-------------------------------|-------------------------------|
E |-------------------------------|-------------------------------|
H |-------------------------------|-----------------0-0-0-0-0-0-0-|
F#|-9-----9---9---9-----9---9---5-|-8-----8---8---8-5-5-5-5-5-5-5-|
H |-0-0-0-0-0-0-0-0-0-0-0-0-0-0-0-|-0-0-0-0-0-0-0-0---------------|
                                                    bend----------
                                                    lekko podciagamy 5 strunę

C#|-------------------------------|------------------------------------------|
G#|-------------------------------|-------------------------------------0----|
E |-------------------------------|-------------------------------------0----|
H |-------------------------------|-------------------------------------0----|
F#|-9-----9---9---9-----9---9---5-|-8-----8---8---8-----10-9----9------------|
H |-0-0-0-0-0-0-0-0-0-0-0-0-0-0-0-|-0-0-0-0-0-0-0-0--12------12---10---------|
                                                    pm..............


   Verse 1                                                                  x4
C#|-------------------------------|------------------------------------------|
G#|-------------------------------|-------------------------------------0----|
E |-------------------------------|-------------------------------------0----|
H |-------------------------------|-------------------------------------0----|
F#|-9-----9---9---9-----9---9---5-|-8-----8---8---8-----10-9----9------------|
H |-0-0-0-0-0-0-0-0-0-0-0-0-0-0-0-|-0-0-0-0-0-0-0-0--12------12---10---------|
                                                    pm..............


  Riff A (Refren)


   Riff 2B
C#|-------------------------------|-------------------------------|
G#|-------------------------------|-------------------------------|
E |-------------------------------|-------------------------------|
H |-------------------------------|-------------------------------|
F#|-9-----9---9---9-----9---9---5-|-8-----8---8---8----7---6---5--|
H |-0-0-0-0-0-0-0-0-0-0-0-0-0-0-0-|-0-0-0-0-0-0-0-0--0-0-0-0-0-0--|
                                                    pm.............

C#|-------------------------------|-------------------------------|
G#|-------------------------------|-------------------------------|
E |-------------------------------|-------------------------------|
H |-------------------------------|-------------------------------|
F#|-9-----9---9---9-----9---9---5-|-8-----8---8---8---------------|
H |-0-0-0-0-0-0-0-0-0-0-0-0-0-0-0-|-0-0-0-0-0-0-0-0--15\----------|
                                                     długi slide

   Verse 2 
C#|-------------------------------|--------------------------------|
G#|-------------------------------|--------------------------------|
E |-------------------------------|--------------------------------|
H |-------------------------------|--------------------------------|
F#|-9-----9---9---9-----9---9---5-|-8-----8---8---8----------------|
H |-0-0-0-0-0-0-0-0-0-0-0-0-0-0-0-|-0-0-0-0-0-0-0-0--0-0-0-0-0-0-0-|
                                                    pm..............
                                                                 x2
C#|-------------------------------|--------------------------------|
G#|-------------------------------|--------------------------------|
E |-------------------------------|--------------------------------|
H |-3-----/-----------------------|-12---/--------10---/-----------|
F#|-3---/-------------------------|--8--/----------7--/------------|
H |-3-/---------------------------|--8-/-----------7-/-------------|


   Pre Ref
C#|-------------------------------|--------------------------------|
G#|-------------------------------|--------------------------------|
E |-------------------------------|--------------------------------|
H |-15-----/----------------------|-10-----/-----3-----------------|
F#|-12---/------------------------|--7---/-------3---/-------------|
H |-12-/--------------------------|--7-/---------3-/---3-3-3-3-3-3-|
                                                       pm..........


Refren

Interlude

   Guitar 1
C#|-------------------|------------------|------------------|------------------|
G#|-------------------|------------------|------------------|------------------|
E |-------------------|------------------|------------------|------------------|
H |-------------------|------------------|------------------|------------------|
F#|-12~------12-14-12-|-11~-----11-12-11-|-10~-----12-11-10-|-9~---------------|
H |-------------------|------------------|------------------|------------------|
                                                  pm........
   Guitar 2
C#|-------------------|------------------|------------------|------------------|
G#|-------------------|------------------|------------------|------------------|
E |-------------------|------------------|------------------|------------------|
H |-10~------10-12-10-|--9~------9-10-9--|--8~-----10--9--8-|-7~---------------|
F#|-------------------|------------------|------------------|------------------|
H |-------------------|------------------|------------------|------------------|
                                                  pm........




C#|----------------------------------|----------------------------------|
G#|----------------------------------|----------------------------------|
E |----------------------------------|----------------------------------|
H |----------------------------------|----------------------------------|
F#|-7~----10-6~---10--------------10-|-7~----10-6~---10--------------10-|
H |------------------10~----7~-------|------------------10~----7~-------|


C#|----------------------------------|----------------------------------|
G#|----------------------------------|----------------------------------|
E |----------------------------------|----------------------------------|
H |----------------------------------|----------------------------------|
F#|-12~----7-6~---10--------------10-|-12~----12-11~--10----------------|
H |-----------------10~----7~--------|-------------------10-------------|


  Podkład pod solo
C#|-------------------------------|--------------------------------|
G#|-------------------------------|--------------------------------|
E |-------------------------------|--------------------------------|
H |-------------------------------|--------------------------------|
F#|-9-----9---9---9-----9---9---5-|-8-----8---8---8----------------|
H |-0-0-0-0-0-0-0-0-0-0-0-0-0-0-0-|-0-0-0-0-0-0-0-0--0-0-0-0-0-0-0-|
                                                    pm..............
                                                                 x2
C#|-------------------------------|--------------------------------|
G#|-------------------------------|--------------------------------|
E |-------------------------------|--------------------------------|
H |-3---/-------------------------|-12---/--------10---/-----------|
F#|-3--/--------------------------|--8--/----------7--/------------|
H |-3-/---------------------------|--8-/-----------7-/-------------|


   Pre Ref
C#|-------------------------------|--------------------------------|
G#|-------------------------------|--------------------------------|
E |-------------------------------|--------------------------------|
H |-15-----/----------------------|-10-----/-----3-----------------|
F#|-12---/------------------------|--7---/-------3---/-------------|
H |-12-/--------------------------|--7-/---------3-/---3-3-3-3-3-3-|
                                                       pm..........

   Outro                                                                   x4
C#|-------------------------------|------------------------------------------|
G#|-------------------------------|-------------------------------------0----|
E |-------------------------------|-------------------------------------0----|
H |-------------------------------|-------------------------------------0----|
F#|-9-----9---9---9-----9---9---5-|-8-----8---8---8-----10-9----9------------|
H |-0-0-0-0-0-0-0-0-0-0-0-0-0-0-0-|-0-0-0-0-0-0-0-0--12------12---10---------|
                                                    pm..............


Pozdr
petlica
petlica
 
Posty: 36
Rejestracja: 29 Sie 2012, 08:26

Re: Tabulatury

Postprzez nooken » 20 Wrz 2018, 23:45

Kurde człowieku uwielbiam twoje taby, wg mnie robisz pod tym względem najlepsza robotę w Polsce (przynajmniej ja nie spotkałem lepszych)!
Dzięki za to że chce Ci się poświęcać czas dla innych i tak trzymaj :) Pozdro
PS. Fajnie gdyby chciało Ci się rozpisać inne kawałki z nowej płyty
Awatar użytkownika
nooken
 
Posty: 890
Rejestracja: 06 Cze 2011, 23:42
Miejscowość: Siedlce

Re: Tabulatury

Postprzez Vojtii » 21 Wrz 2018, 17:52

Ja robiłem Iglo na podstawie tego filmiku:

Nie sprawdzałem twojej wersji, ale myślę że w obu wersjach dźwięki są podobne.
" Szykujcie bracia amunicję na święta
To Boże Narodzenie będą długo pamiętać! "
Awatar użytkownika
Vojtii
 
Posty: 61
Rejestracja: 22 Sty 2018, 13:21
Miejscowość: Warszawa / Warschau / Варшава

Re: Tabulatury

Postprzez petlica » 24 Wrz 2018, 19:17

Bardzo fajnie jest to zagrane, spoko brzmi. Bardzo mi się podoba,ale lekko odbiega od oryginału.
Tak przynajmniej mi wydaje, dlatego też to rozpisałem jakbym to widział.
Chodzi właściwie o drobne niuanse, które czasami robią różnicę.
Fajnie że ludzie pokazują różne rzeczy, wtedy coś z tego można wyłapać dla siebie
Pozdr
petlica

-- 23 Wrz 2018, 23:13 --

Tu też lekko zmieniona wersja opracowania już wcześniej wrzuconego

Kod: Zaznacz wszystko
Pozdrawiamy
by petlica

   Intro
C#|---------------------------|-------------------------|
G#|---------------------------|-------------------------|
E |---------------------------|-------------------------|
H |---------------------------|-------------------------|
F#|---------------------------|-------------------------|
H |---------------------------|-2-2-2-3-3-3-5-5-5-6-6-6-|

                           x3
C#|--------------------------|--------------------------|
G#|--------------------------|--------------------------|
E |--------------------------|--------------------------|
H |--------------------------|-3p0---0------------------|
F#|-------7h8---10h12---7h8--|-----5---5-3p0---0--------|
H |-0-0-0-----0-------0------|---------------5---5-3~---|


                           x3
C#|--------------------------|--------------------------------|
G#|--------------------------|--------------------------------|
E |--------------------------|--------------------------------|
H |--------------------------|-15p0----0----------------------|
F#|-------7h8---10h12---7h8--|------17---17-15p0----0---------|
H |-0-0-0-----0-------0------|-------------------17---17-15~--|


Verse
                           x3
C#|--------------------------|--------------------------|
G#|--------------------------|--------------------------|
E |--------------------------|--------------------------|
H |--------------------------|-3p0---0------------------|
F#|-------7h8---10h12---7h8--|-----5---5-3p0---0--------|
H |-0-0-0-----0-------0------|---------------5---5-3~---|
 


  Pre Ref
C#|-------------------------|-------------------------|
G#|-------------------------|-------------------------|
E |-------------------------|-------------------------|
H |-2------------2----------|-2-----------------------|
F#|-2------------2----------|-2----------3p0---0------|
H |-2---222-222--2--222-222-|-2--222-222-----5---5-3--|
        pm.....     pmm....      pm.....

C#|-------------------------|-------------------------|
G#|-------------------------|-------------------------|
E |-------------------------|-------------------------|
H |-2------------2----------|-------------------------|
F#|-2------------2----------|-------------------------|
H |-2---222-222--2--222-222-|-2-2-2-3-3-3-5-5-5-6-6-6-|
       pm......     pm.....


   Ref
C#|-----------------------|-------------------|
G#|-----------------------|-------------------|
E |----7--6/7---10-10-9---|-------------------|
H |----x--x-x----x--x-----|-5--5-3----8--8-7--|
F#|----5--4/5----8--8-7---|-5--5-3----8--8-7--|
H |-0---------------------|-5--5-3----8--8-7--|


C#|-----------------------|-------------------------------|
G#|-----------------------|-------------------------------|
E |----7--6/7---10-10-9---|-------------------------------|
H |----x--x-x----x--x-----|-------------------------------|
F#|----5--4/5----8--8-7---|-------------------------------|
H |-0---------------------|-3-3-3-5-5-5-6-6-6-8-8-8-6-6-5-|


Interlude

   Guitar 1&2
C#|-----------------------------------|-----------------------------------|
G#|-----------------------------------|-----------------------------------|
E |----------7~----------------8~-----|----------7~----------------6~-----|
H |-0-7-9-10------10-9-7-0-7-9----9~--|-0-5-7-8--------8-7-5-0-5-7----7~--|
F#|-----------------------------------|-----------------------------------|
H |-----------------------------------|-----------------------------------|
   pm.......      pm..........         pm......        pm.........
                                                                    x2
C#|-----------------------------------|-------------------------------|
G#|-----------------------------------|-------------------------------|
E |----------5~----------------4~-----|-------------------------------|
H |-0-3-5-6--------6-5-3-0-3-5----5~--|-------------------------------|
F#|-----------------------------------|-------------------------------|
H |-----------------------------------|-3-3-3-5-5-5-6-6-6-8-8-8-6-6-5-|
   pm......       pm..........


   Guitar 1
C#|--------------------------------------------|--------------------------------------------|
G#|--------------------------------------------|--------------------------------------------|
E |------------14~--------------------13~------|------------12~--------------------11~------|
H |-0-12-14-15-------15-14-12-0-12-14-----14~--|-0-10-12-13-------13-12-10-0-10-12-----12~--|
F#|--------------------------------------------|--------------------------------------------|
H |--------------------------------------------|--------------------------------------------|
  |pm....... .       pm..............          |pm....... .       pm..............          |
  |                                            |                                            |
  |Guitar 2                                    |                                            |
C#|--------------------------------------------|--------------------------------------------|
G#|--------------------------------------------|--------------------------------------------|
E |------------17~--------------------16~------|------------15~--------------------14~------|
H |-0-15-17-18-------18-17-15-0-15-17-----17~--|-0-13-15-16-------16-15-13-0-13-15-----15~--|
F#|--------------------------------------------|--------------------------------------------|
H |--------------------------------------------|--------------------------------------------|
   pm....... .       pm..............           pm....... .       pm..............           



C#|--------------------------------------------|-------------------------------------|
G#|--------------------------------------------|-------------------------------------|
E |------------10~---------------------9~------|-------------------------------------|
H |-0--8-10-11-------11-10--8-0--8-10-----10~--|-------------------------------------|
F#|--------------------------------------------|-------------------------------------|
H |--------------------------------------------|--3--3--3--5--5--5--6--6--6--8--8--8-|
  |pm....... .       pm..............          |                                     |
  |                                            |                                     |
  |Guitar 2                                    |                                     |
C#|--------------------------------------------|-------------------------------------|
G#|--------------------------------------------|-------------------------------------|
E |------------13~--------------------12~------|-11-11-11-12-12-12-14-14-14-15~------|
H |-0-11-13-14-------14-13-11-0-11-13-----13~--|-------------------------------------|
F#|--------------------------------------------|-------------------------------------|
H |--------------------------------------------|-------------------------------------|
   pm....... .       pm..............           


End
   Guitar 1
C#|--------------------------------------------|
G#|--------------------------------------------|
E |------------14~--------------------13~------|
H |-0-12-14-15-------15-14-12-0-12-14-----14~--|
F#|--------------------------------------------|
H |--------------------------------------------|
  |pm....... .       pm..............         


-- 24 Wrz 2018, 19:15 --

To jeszcze jeden tab - Księgowy

Kod: Zaznacz wszystko
Luxtorpeda - Księgowy
py petlica

   Riff A
C#|------------------|------------------|
G#|------------------|------------------|
E |------------------|------------------|
H |-3-3-0-2----------|-3-3-0-2---4------|
F#|-3-3-0-2----------|-3-3-0-2---2------|
H |-3-3-0-2----------|-3-3-0-2-0--------|

   Riff B
C#|---------------------------------|
G#|---------------------------------|
E |---------------------------------|
H |---------------------------------|
F#|---3/2---2\3---3---------3---3h5-|
H |-0-3/2-0-2\3-0-3-0-3h5-0---0-----|
   pm    pm    pm  pm    pm  pm

   Riff C
C#|---------------|---------------|---------------|-----------------|
G#|---------------|---------------|---------------|-----------------|
E |---------------|---------------|---------------|-----------------|
H |---------------|---------------|---------------|-----------------|
F#|-6--6/5---5\6--|-6--6/5---5\6--|-6--6/5---5\6--|-6--6/5---8-8\9--|
H |-6--6/5-0-5\6--|-6--6/5-0-5\6--|-6--6/5-0-5\6--|-6--6/5-0-8-8\9--|
          pm              pm              pm              pm

   Riff 2A
C#|------------------|------------------|
G#|------------------|------------------|
E |------------------|------------------|
H |-3-3-0-2----------|-3-3-0-2---4------|
F#|-3-3-0-2----------|-3-3-0-2---4------|
H |-3-3-0-2----------|-3-3-0-2-0-4------|


   Riff D
C#|-9---------12---|-9--------------|
G#|----10--9-------|----10--9-------|
E |----------------|----------------|
H |----------------|----------------|
F#|----------------|----------------|
H |----------------|----------------|

   Riff 2B
C#|-------------------------------------------|
G#|-------------------------------------------|
E |-------------------------------------------|
H |-------------------------------------------|
F#|--------------------------------15---15h17-|
H |-0-15/14-0-14\15-0-15-0-15h17-0----0-------|
   pm      pm      pm   pm      pm   pm


   End
C#|------------------|------------------|
G#|------------------|------------------|
E |------------------|------------------|
H |-3-3-0-2----------|-3--3--0--2-------|
F#|-3-3-0-2----------|-3--3--0--2-------|
H |-3-3-0-2----------|-3--3--0--2-------|
petlica
 
Posty: 36
Rejestracja: 29 Sie 2012, 08:26

Re: Tabulatury

Postprzez Marianek » 26 Wrz 2018, 15:40

Ja będę mieć w przyszłym miesiącu Siódme, teraz nie miałem za bardzo czasu żeby dokończyć
-Żeby wyprowadzić kraj z kryzysu, trzeba zrobić ściepę narodową!!.. I kupić bombę atomową.-
Awatar użytkownika
Marianek
 
Posty: 759
Rejestracja: 14 Lis 2013, 23:01
Miejscowość: Racibórz/Gliwice/Hürth

Re: Tabulatury

Postprzez nooken » 26 Wrz 2018, 16:29

Jesteś mistrzem petlica :D ma wdzięczność dla Ciebie nie zna granic ;)
Awatar użytkownika
nooken
 
Posty: 890
Rejestracja: 06 Cze 2011, 23:42
Miejscowość: Siedlce

Re: Tabulatury

Postprzez Vojtii » 26 Wrz 2018, 16:32

Brawo petlica!
" Szykujcie bracia amunicję na święta
To Boże Narodzenie będą długo pamiętać! "
Awatar użytkownika
Vojtii
 
Posty: 61
Rejestracja: 22 Sty 2018, 13:21
Miejscowość: Warszawa / Warschau / Варшава

Re: Tabulatury

Postprzez petlica » 29 Wrz 2018, 13:37

Dzięki chłopaki ;)

-- 29 Wrz 2018, 10:55 --

To dorzucam jeszcze Dziury po ospie.
Może komuś się przyda.

Kod: Zaznacz wszystko

Dziury po ospie
tab by petlica

   Intro
   Git1
C#|------------0----------------|------------0--------------|
G#|---------------0-------------|---------------0-----------|
E |-6----6-----------6----------|-5----5-----------5--------|
H |-4-------4-------------------|-3-------3-----------------|
F#|-0---------------------0-0---|-0-------------------0-0---|
H |-0---------------------0-0-0-|-0-------------------0-0-0-|
                         pm....                      pm.....


   Git1
C#|------------0----------------|------------0--------------|
G#|---------------0-------------|---------------0-----------|
E |-18---18----------18---------|-17--17----------17--------|
H |-16------16------------------|-15-----15-----------------|
F#|--0--------------------0-0---|--0------------------0-0---|
H |--0--------------------0-0-0-|--0------------------0-0-0-|
                         pm....                      pm....


   Motyw 1
C#|------------------------------------------|-----------------------------------|
G#|------------------------------------------|-----------------------------------|
E |-18-18/14--14-14/11--11-11/14--14/16-14---|-12-12/14--14-14/17--17/19-17~-----|
H |--x--x--x---x--x--x---x--x--x---x--x--x---|--x--x--x---x--x--x---x--x--x------|
F#|-16-16/12--12-12/9----9--9/12--12/14-12---|-10-10/12--12-12/15--15/17-15~-----|
H |------------------------------------------|-----------------------------------|


C#|------------------------------------------|--------------------------------------|
G#|------------------------------------------|--------------------------------------|
E |-18-18/14--14-14/11--11-11/14--14/16-14---|-12-12/14--14-14/17--17/19-19/21-21---|
H |--x--x--x---x--x--x---x--x--x---x--x--x---|--x--x--x---x--x--x---x--x--x---------|
F#|-16-16/12--12-12/9----9--9/12--12/14-12---|-10-10/12--12-12/15--15/17-17/19-19~--|
H |------------------------------------------|--------------------------------------|

       

  Verse
   Git 1                                                                     x2
C#|-----------------------------------|-------------------------------------|
G#|-----------------------------------|-------------------------------------|
E |-----------------------------------|-------------------------------------|
H |-----5-7-7/8---------5-7-7/8-7-5-0-|-----1-3-3/5--------1-3-1--0h1p0---0-|
F#|---5---------------5---------------|---1--------------1--------------3---|
H |-5---------------5-----------------|-1--------------1--------------------|


C#|------------------------------------------|-----------------------------------|
G#|------------------------------------------|-----------------------------------|
E |-----------------------------8-7h8p7------|-----------------------------------|
H |-----8-10-10/12---------8-10---------10-8-|-----5-7-7/8---------5-7-7/8-7-5-0-|
F#|---8------------------8-------------------|---5---------------5---------------|
H |-8------------------8---------------------|-5---------------5-----------------|


C#|-----------------------------------|-----------------------------------------------|
G#|-----------------------------------|-----------------------------------------------|
E |-----------------------------------|-----------------------------------------------|
H |-----3-5-5/7---------3-5-5/7-------|-----5-7-7/8-----------------------------------|
F#|---3---------------3---------------|---5-----------5-5-5-5-3-3-3-3-2-2-2-2-1-1-1-1-|
H |-3---------------3-----------------|-5-------------5-5-5-5-3-3-3-3-2-2-2-2-1-1-1-1-|
                                                     pm...............................

Verse
   Git 2                                              x2
C#|---------------------------|-------------------------|
G#|---------------------------|-------------------------|
E |-------14------------14----|------10---------10------|
H |----12------------12-------|----8----------8---------|
F#|-13------------13----------|-10---------10-----------|
H |---------------------------|-------------------------|


C#|---------------------------|-------------------------|
G#|---------------------------|-------------------------|
E |-------17-------------17---|-------14---------14-----|
H |----15-------------15------|----12---------12--------|
F#|-17-------------17---------|-13---------13-----------|
H |---------------------------|-------------------------|


C#|---------------------------|--------------------------------------------|
G#|---------------------------|--------------------------------------------|
E |-------12------------12----|-------14-----------------------------------|
H |----10------------10-------|----12--------------------------------------|
F#|-12------------12----------|-13---------5-5-5-5-3-3-3-3-2-2-2-2-1-1-1-1-|
H |---------------------------|------------5-5-5-5-3-3-3-3-2-2-2-2-1-1-1-1-|
                                          pm...............................




C#|---------------------|---------------------|
G#|---------------------|---------------------|
E |---------------------|---------------------|
H |-8---/-----13---/----|-8---/-----13---/----|
F#|-5--/------13--/-----|-5--/------13--/-----|
H |-5-/-------13-/------|-5-/-------13-/------|


C#|---------------------|-------------------------------------------------|
G#|---------------------|-------------------------------------------------|
E |---------------------|-------------------------------------------------|
H |-12--/------8---/----|-7---/------8---/--------------------------------|
F#|-8--/-------5--/-----|-3--/-------5--/-5-5-5-5-3-3-3-3-2-2-2-2-1-1-1-1-|
H |-8-/--------5-/------|-3-/--------5-/--5-5-5-5-3-3-3-3-2-2-2-2-1-1-1-1-|
                                         pm...............................
Motyw 2A                                         x-razy
C#|-------------------------|-------------------------|
G#|-15-13-11-13-15-13-11-13-|-15-13-11-13-15-13-11-13-|
E |-------------------------|-------------------------|
H |-------------------------|-------------------------|
F#|-------------------------|-------------------------|
H |-------------------------|-------------------------|

C#|-------------------------|-------------------------|
G#|-15-13-11-13-11-10-11-10-|----10-------------------|
E |-------------------------|-12----12-10-12-10-9~----|
H |-------------------------|-------------------------|
F#|-------------------------|-------------------------|
H |-------------------------|-------------------------|


Motyw 2B                                         x-razy
C#|-------------------------|-------------------------|
G#|-------------------------|-------------------------|
E |-15-14-12-14-15-14-12-14-|-15-14-12-14-15-14-12-14-|
H |-------------------------|-------------------------|
F#|-------------------------|-------------------------|
H |-------------------------|-------------------------|

C#|-------------------------|-------------------------|
G#|-------------------------|-------------------------|
E |-15-14-12-14-12-10-12-10-|--9-10-9----9------------|
H |-------------------------|---------12---12-10~-----|
F#|-------------------------|-------------------------|
H |-------------------------|-------------------------|



   Riff A                                                     x4
C#|--------------------------------|----------------------------|
G#|--------------------------------|----------------------------|
E |--------------------------------|----------------------------|
H |--------------------------------|----------------------------|
F#|--------------------------------|--------------------6-------|
H |-8h10-10-10--8h10-10-10-8h10-10-|-8h10-10-10---7--8-----8--7-|

   Riff B                                      x3
C#|----------------------|-----------------------|
G#|----------------------|-----------------------|
E |----------------------|-----------------------|
H |----------------------|-----------------------|
F#|-3h5-5-5-3h5-5-5---5--|-3h5-5-5-3h5-5-5--3-0--|
H |-3h5-5-5-3h5-5-5-x-5--|-3h5-5-5-3h5-5-5--3-0--|


C#|----------------------|--------------------------|
G#|----------------------|--------------------------|
E |----------------------|--------------------------|
H |----------------------|--------------------------|
F#|-3h5-5-5-3h5-5-5---5--|--------------------------|
H |-3h5-5-5-3h5-5-5-x-5--|-5-5-5-5-5-5-6-6-6-6-7-7--|


   Riff C                                         x2
C#|------------------------|------------------------|
G#|------------------------|------------------------|
E |------------------------|------------------------|
H |------------------------|------------------------|
F#|------------------------|------------------------|
H |-5h7-7-7--5h7-7-7-5h7-7-|-5h7-7-7--5h7-7-7-5h7-7-|


   Riff A                                                   
C#|--------------------------------|----------------------------|
G#|--------------------------------|----------------------------|
E |--------------------------------|----------------------------|
H |--------------------------------|----------------------------|
F#|--------------------------------|--------------------6-------|
H |-8h10-10-10--8h10-10-10-8h10-10-|-8h10-10-10---7--8-----8--7-|


C#|--------------------------------|----------------------------|
G#|--------------------------------|----------------------------|
E |--------------------------------|----------------------------|
H |--------------------------------|----------------------------|
F#|--------------------------------|--------------------6-------|
H |-8h10-10-10--8h10-10-10-8h10-10-|-8h10-10-10---7--8-----8----|


C#|-------------|-------------|
G#|-------------|-------------|
E |-------------|-------------|
H |-------------|-----------8-|
F#|---------6---|---------6---|
H |-7---7-8---8-|-7---7-8-----|

   Riff D                         x3
C#|---------------------------------|
G#|---------------------------------|
E |---------------------------------|
H |-----------------------------8---|
F#|---6-----------6-----------6-----|
H |-8---8-7---7-8---8-7---7-8-------|




   Motyw 1
C#|------------------------------------------|-----------------------------------|
G#|------------------------------------------|-----------------------------------|
E |-18-18/14--14-14/11--11-11/14--14/16-14---|-12-12/14--14-14/17--17/19-17~-----|
H |--x--x--x---x--x--x---x--x--x---x--x--x---|--x--x--x---x--x--x---x--x--x------|
F#|-16-16/12--12-12/9----9--9/12--12/14-12---|-10-10/12--12-12/15--15/17-15~-----|
H |------------------------------------------|-----------------------------------|


C#|------------------------------------------|--------------------------------------|
G#|------------------------------------------|--------------------------------------|
E |-18-18/14--14-14/11--11-11/14--14/16-14---|-12-12/14--14-14/17--17/19-19/21-21---|
H |--x--x--x---x--x--x---x--x--x---x--x--x---|--x--x--x---x--x--x---x--x--x---------|
F#|-16-16/12--12-12/9----9--9/12--12/14-12---|-10-10/12--12-12/15--15/17-17/19-19~--|
H |------------------------------------------|--------------------------------------|


Spokojniejsza partia pod motywem 1

C#|---------0---------------|---------0---------------|
G#|-------0---0-------------|-------0---0-------------|
E |-----6-------6-----------|-----5-------5-----------|
H |---4-----------4---------|---3-----------3---------|
F#|-------------------------|-------------------------|
H |-0-----------------------|-0-----------------------|

petlica
 
Posty: 36
Rejestracja: 29 Sie 2012, 08:26

Re: Tabulatury

Postprzez nooken » 29 Wrz 2018, 15:14

Wow dzięki petlica! Zaraz będzie cały album stabowany :)
Awatar użytkownika
nooken
 
Posty: 890
Rejestracja: 06 Cze 2011, 23:42
Miejscowość: Siedlce

Re: Tabulatury

Postprzez petlica » 01 Paź 2018, 20:38

Kod: Zaznacz wszystko
Luxtorpeda - Siódme
drop D
tab by petlica


Intro

   Git_1
E|--------------------------------|--------------------------------|
H|--------------------------------|--------------------------------|
G|--------------------------------|--------------------------------|
D|--8-----/--------------/--------|-10-----/-------------/---------|
A|--8---/--------------/----------|-10---/-------------/-----------|
D|--8-/--------------/------------|-10-/-------------/-------------|
-|                                |                                |               
-|Git_2                           |                                |
E|--------------------------------|--------------------------------|
H|--------------------------------|--------------------------------|
G|-10/12-12-12-10--10/12-12-12-10-|-10/12-12-12-10--10/12-12-12-10-|
D|--x-----x--x--x---x-----x--x--x-|--x-----x--x--x---x-----x--x--x-|
A|--8/10-10-10--8---8/10-10-10--8-|--8/10-10-10--8---8/10-10-10--8-|
D|--------------------------------|--------------------------------|



Riff A

   Git_1                                                    x4
E|---------------------------|--------------------------------||---------------------|
H|---------------------------|--------------------------------||---------------------|
G|---------------------------|--------------------------------||---------------------|
D|-3p0-----------------------|-8---/-----------10---/---------||-7----------------7--|
A|-----5-0-5p3p0---0---------|-8--/------------10--/----------||-5----------------5--|
D|---------------5----3---5~-|-8-/-------------10-/-----------||---------------------|
-|                           |                                ||                     |               
-|Git_2                      |                                ||                     |
E|---------------------------|--------------------------------||---------------------|
H|-3-------------------------|--------------------------------||---------------------|
G|-2-------------------------|-10/12-12-12-10--10/12-12-12-10-||-10/12-12-12-10------|
D|-0-------------------------|--x-----x--x--x---x-----x--x--x-||--x-----x--x--x------|
A|-0-------------------------|--8/10-10-10--8---8/10-10-10--8-||--8/10-10-10--8------|
D|---------------------------|--------------------------------||---------------------|



Riff B - Verse

E|-------------------------------------------|
H|-------------------------------------------|
G|-------------------------------------------|
D|-7-----------------------------------------|
A|-5--9h10p9--7--9h10p9--9--9h10p9--7-7--7-5-|
D|------------7----------9----------5-5--5-5-|


Riff C - Refren

E|---------------------|---------------------------|
H|---------------------|---------------------------|
G|---------------------|---------------------------|
D|-7--7----------------|---------------------------|
A|-5--5--9h10-10-10p9--|-9-7---/--------7-5--/-----|
D|---------------------|-7-7---/--------5-5--/-----|
-|                     |                           |             
-|Git_2                |                           |
E|---------------------|---------------------------|
H|---------------------|---------------------------|
G|-11-9-7-9-----7------|---------------------------|
D|---------------------|---------------------------|
A|-9--7-5-7-----5------|-9-7---/--------7-5--/-----|
D|---------------------|-7-7---/--------5-5--/-----|


Riff D
E|------------------------------|
H|------------------------------|
G|------------------------------|
D|-7----------------------------|
A|-5------7-------9------5------|
D|--------7-------9------5------|

solo
E|-------------------------------|-------------------------------|
H|-------------------------------|-------------------------------|
G|----11----14----11----11-------|-------11----14----11----------|
D|-12----12----12----12----14-12-|-11-12----12----12----14-12-11-|
A|-------------------------------|-------------------------------|
D|-------------------------------|-------------------------------|


E|-------------------------------|-------------------------------|
H|-------------------------------|-------------------------------|
G|----11----14----11----14-------|----11----14----11-------------|
D|-12----12----12----12----12-11-|-12----12----12----12-12-16\---|
A|-------------------------------|-------------------------------|
D|-------------------------------|-------------------------------|


E|-------------------------------|-------------------------------|
H|-------------------------------|-------------------------------|
G|-11--/---12--/---14-/---16--/--|-11--/---12--/-----------------|
D|-12-/----14-/----16/----17-/---|-12-/----14-/------------------|
A|-------------------------------|-------------------------------|
D|-------------------------------|------------------x\x\x\x\x\x\-|


Riff C

E|-----------------------|-------------------------|
H|-----------------------|-------------------------|
G|-----------------------|-------------------------|
D|-9--9------------------|-------------------------|
A|-7--7--11h12-120-12p11-|-11-9--/------9-7--/-----|
D|-----------------------|--9-9-/-------7-7--/-----|
-|                       |                         |
-|Git_2                  |                         |
E|-----------------------|-------------------------|
H|-----------------------|-------------------------|
G|-----------------------|-------------------------|
D|-18-16-14--16--14~-----|-------------------------|
A|-----------------------|-9-7---/--------7-5--/---|
D|-----------------------|-7-7---/--------5-5--/---|

End
E|-----------------------|
H|-----------------------|
G|-9---9---9/------------|
D|-9---9---9/------------|
A|-7---7---7/------------|
D|-----------------------|
petlica
 
Posty: 36
Rejestracja: 29 Sie 2012, 08:26

Re: Tabulatury

Postprzez nooken » 02 Paź 2018, 15:15

Dziękować!
Awatar użytkownika
nooken
 
Posty: 890
Rejestracja: 06 Cze 2011, 23:42
Miejscowość: Siedlce

Re: Tabulatury

Postprzez Vojtii » 06 Paź 2018, 19:40

Geniusz!

-- 06 Paź 2018, 10:18 --

Może ja wziąłbym się za "Zerwali Sieć"?

-- 06 Paź 2018, 18:40 --

Mam to.
W tygodniu rozpisze tab (bez solo).
" Szykujcie bracia amunicję na święta
To Boże Narodzenie będą długo pamiętać! "
Awatar użytkownika
Vojtii
 
Posty: 61
Rejestracja: 22 Sty 2018, 13:21
Miejscowość: Warszawa / Warschau / Варшава

Re: Tabulatury

Postprzez petlica » 13 Paź 2018, 09:42

W oczekiwaniu na "Zerwali sieć" ;) wrzucam Mazanic.
Ten arabsko-żydowski motyw chyba inaczej jest grany na koncertach niż na płycie.
Efektu odpowiedniego nie mam, także wrzucam jakbym to widział bez niego.

Kod: Zaznacz wszystko
Mazanic
tab by petlica

   Intro / Riff A
C#|-------------------------|-------------------------|
G#|-------------------------|-------------------------|
E |-------------------------|-------------------------|
H |-------------------------|-------------------------|
F#|-------------------------|--------------------////-|
H |-------------------------|-------------------------|


C#|-------------------------|-------------------------|
G#|-------------------------|-------------------------|
E |-------------------------|-------------------------|
H |-------------------------|-------------------------|
F#|-10-12-10-12-10-12-10-12-|-10-12-10-12~------------|
H |-------------------------|-------------------------|


C#|-------------------------|----------------------------|
G#|-------------------------|----------------------------|
E |--------------11b12r11~--|-15-14-12-14-12-11-12-11----|
H |-----12b13r12------------|-------------------------13-|
F#|-/15---------------------|----------------------------|
H |-------------------------|----------------------------|


C#|-------------------------|--------------------------|
G#|-------------------------|--------------------------|
E |-------------------------|--------------------------|
H |--12~-----------------12-|-13~--(13)-(13)--------12-|
F#|----------------12-15----|-----------------12-15----|
H |-------------------------|--------------------------|


C#|-------------------------------|------------------------|---------|
G#|-------------------------------|------------------------|---------|
E |-------------------------------|------------------------|---------|
H |-13~--(13)--(13)---13-12----12-|------------------------|---------|
F#|-------------------------15----|-15-13-15-13-12-13-12-10|/13~-----|
H |-------------------------------|------------------------|---------|

   Riff B (Refren)                        x3
C#|------------------------|----------------|
G#|------------------------|----------------|
E |------------------------|----------------|
H |-10/12-12-12------------|-----------/----|
F#|--8/10-10-10-8/10-10-10-|-8-5---5--/-----|
H |-------------8/10-10-10-|-8-5---5-/------|

C#|------------------------|----------------|
G#|------------------------|----------------|
E |------------------------|----------------|
H |-10/12-12-12------------|----------------|
F#|--8/10-10-10-8/10-10-10-|-8---5---5---5--|
H |-------------8/10-10-10-|-8---5---5---5--|


   Riff C (Verse)                                     x3
C#|---------------------------|-------------------------|
G#|---------------------------|-------------------------|
E |---------------------------|-------------------------|
H |-4p0-0-0-0-0-0--4p0--------|-------------------------|
F#|--------------------6--5/6-|-3-3-3-3-3-3-6-6-6-8-8-8-|
H |---------------------------|-------------------------|

C#|---------------------------|-------------------------|
G#|---------------------------|-------------------------|
E |---------------------------|-------------------------|
H |-4p0-0-0-0-0-0--4p0--------|-------------------------|
F#|--------------------6--5/6-|-3-3-3-------------------|
H |---------------------------|-------5-5-5-3-3-3-8-8-8-|

   Riff D
C#|--------------------------------|----------------------------------------|
G#|--------------------------------|----------------------------------------|
E |--------------------------------|----------------------------------------|
H |--------------------------------|----------------------------------------|
F#|--------------------------------|----------------------------------------|
H |-5-3-5--8-5-8--10-8-10--12-10-8-|-13-12-10--12-10h12p10-8--10-8-5--8-5-3-|


   Riff E               x3
C#|-----------------------|-------------------------|
G#|-----------------------|-------------------------|
E |-----------------------|-------------------------|
H |-----------------------|-------------------------|
F#|-----------------------|-------------------------|
H |-0-0-0-13p0-0-0-0-10p0-|-0-0-0-13p0-0-0-0-15/----|


   Riff F                                               x4
C#|---------------------------|---------------------------|
G#|---------------------------|---------------------------|
E |------------------15-15-15-|------------------15-15-15-|
H |-------------------x--x--x-|-------------------x--x--x-|
F#|------------------13-13-13-|------------------12-12-12-|
H |-0-0-0-13p0-0-0-0----------|-0-0-0-13p0-0-0-0----------|

   Riff G
C#|----------------------------|---------------------------|
G#|----------------------------|---------------------------|
E |----------------------------|---------------------------|
H |----------------------------|---------------------------|
F#|----------------------------|---------------------------|
H |-0-0-14.5--12--0-0-14.5--12-|-0-0-14.5--12--0-0-14.5-12-|
        NH......      NH......       NH......      NH.....

   End
C#|----------------------|----------------|-----------------|----------------|
G#|----------------------|----------------|-----------------|----------------|
E |----------------------|----------------|-----------------|----------------|
H |-10--10--12-----------|----------------|-----------------|----------------|
F#|--8---8--10--8--8--10-|--5---5---5-----|--5---5---5---5--|--5---5---------|
H |-------------8--8--10-|--5---5---5-----|--5---5---5---5--|--5---5---------|



Pozdr
petlica
 
Posty: 36
Rejestracja: 29 Sie 2012, 08:26

Re: Tabulatury

Postprzez nooken » 13 Paź 2018, 20:00

Dzięki Ci dobry człowieku!
Awatar użytkownika
nooken
 
Posty: 890
Rejestracja: 06 Cze 2011, 23:42
Miejscowość: Siedlce

Re: Tabulatury

Postprzez petlica » 14 Paź 2018, 21:58

Tab powyżej jeden błąd zrobiłem przy zapisywaniu.
Powinno być tak
Kod: Zaznacz wszystko
   Riff F                                               x4
C#|---------------------------|---------------------------|
G#|---------------------------|---------------------------|
E |------------------15-15-15-|------------------14-14-14-|
H |-------------------x--x--x-|-------------------x--x--x-|
F#|------------------13-13-13-|------------------12-12-12-|
H |-0-0-0-13p0-0-0-0----------|-0-0-0-13p0-0-0-0----------|


Dorzucam Imago.

Kod: Zaznacz wszystko
Imago
tab by petlica


   Intro / Riff A

   Git_1               
C#|-------------------------|-------------------------|
G#|-------------------------|-------------------------|
E |----18----18----18----18-|----18----18----18----18-|
H |-16----16----16----16----|-16----16----16----16----|
F#|-------------------------|-------------------------|
H |-------------------------|-------------------------|

                                                    x3
C#|-------------------------|-------------------------|
G#|-------------------------|-------------------------|
E |----16----16----16----16-|----16----16----16----16-|
H |-14----14----14----14----|-14----14----14----14----|
F#|-------------------------|-------------------------|
H |-------------------------|-------------------------|


   Git_2        x2                     x2              x2              x2
C#|---------------|----------------------|---------------|---------------|
G#|---------------|----------------------|---------------|---------------|
E |-6-6-6-6-6-6-6-|-12-12-12-12-12-12-12-|-4-4-4-4-4-4-4-|-8-8-8-8-8-8-8-|
H |-4-4-4-4-4-4-4-|-10-10-10-10-10-10-10-|-2-2-2-2-2-2-2-|-6-6-6-6-6-6-6-|
F#|---------------|----------------------|---------------|---------------|
H |---------------|----------------------|---------------|---------------|


   Git_3               
C#|-7----------|-7---------------|
G#|-----7------|-----7---12------|
E |------------|-----------------|
H |------------|-----------------|
F#|------------|-----------------|
H |------------|-----------------|
   NH............................



  Verse / Riff B

   Git_1               
C#|------------0--------|------------0--------|
G#|-------0------0----0-|-------0------0----0-|
E |----18---18-----18---|----18---18-----18---|
H |-16------------------|-16------------------|
F#|---------------------|---------------------|
H |---------------------|---------------------|
       
                                            x3
C#|------------0--------|------------0--------|
G#|-------0------0----0-|-------0------0----0-|
E |----16---16-----16---|----16---16-----16---|
H |-14------------------|-14------------------|
F#|---------------------|---------------------|
H |---------------------|---------------------|

   Git_2          x2                      x2                x2                x2
C#|---------0-------|-------------0---------|---------0-------|---------0-------|
G#|-----------0-----|---------------0-------|-----------0-----|-----------0-----|
E |-----6-------6---|-------12--------12----|-----4-------4---|-----8-------8---|
H |-4-4---4-------4-|-10-10----10--------10-|-2-2---2-------2-|-6-6---6-------6-|
F#|-----------------|-----------------------|-----------------|-----------------|
H |-----------------|-----------------------|-----------------|-----------------|

   Riff C
C#|-----------------|-----------------|
G#|-----------------|-----------------|
E |-----------------|-----------------|
H |-----------------|-----------------|
F#|-1-2-1-2-1-2-1-2-|-1-2-1-2-1-2-1-2-|
H |-1-2-1-2-1-2-1-2-|-1-2-1-2-1-2-1-2-|

   Riff D                                   x4
C#|---------------------|---------------------|
G#|---------------------|---------------------|
E |---------------------|---------------------|
H |-8---/--9---/--9---/-|-8---/--9---/--9---/-|
F#|-6--/---6--/---7--/--|-6--/---6--/---7--/--|
H |-6-/----6-/----7-/---|-6-/----6-/----7-/---|

   Ref / Riff E
C#|---------------|---------------|---------------|---------------|
G#|---------------|---------------|---------------|---------------|
E |---------------|---------------|---------------|---------------|
H |-6---/----/----|-8---/----/----|-9---/----/----|-11---/----/---|
F#|-6--/----/-----|-4--/----/-----|-9--/----/-----|--7--/----/----|
H |-6-/----/------|-4-/----/------|-9-/----/------|--7-/----/-----|



   Riff F (druga gitara gra Riff D)
C#|-------------------------|----------------------|
G#|-11---/-11/12---/-12/14--|-16---14---12-11-9-7--|
E |--x--/---x-----/---------|--x---x-----x--x-x-x--|
H |--8-/----8/9--/----9/11--|-13---11----9--8-6-4--|
F#|-------------------------|----------------------|
H |-------------------------|----------------------|


   Riff G (w podkładzie Riff E)
C#|-14------------------------|-14----------------------|
G#|----12--12h14--9~----11-12-|----12--12h14--9~--11-12-|
E |---------------------------|-------------------------|
H |---------------------------|-------------------------|
F#|---------------------------|-------------------------|
H |---------------------------|-------------------------|


C#|-14------------14~---14-16-|-17-16h17p16-14-16-14h16p14----11-12-||-----------|
G#|----12--12h14--------------|----------------------------14-------||-12~-------|
E |---------------------------|-------------------------------------||-----------|
H |---------------------------|-------------------------------------||-----------|
F#|---------------------------|-------------------------------------||-----------|
H |---------------------------|-------------------------------------||-----------|


   Riff H
C#|-----------------|-----------------|
G#|-----------------|-----------------|
E |-----------------|-----------------|
H |-------1-----2-1-|-------1-----2-1-|
F#|-0-1-2-1-2-1-2-1-|-0-1-2-1-2-1-2-1-|
H |-0-1-2---2-1-----|-0-1-2---2-1-----|
   pm....  pm..      pm....  pm..

C#|-----------------|-----------------|
G#|-----------------|-----------------|
E |-----------------|-----------------|
H |-----------------|-----------------|
F#|-1-2-1-2-1-2-1-2-|-1-2-1-2-1-2-1-2-|
H |-1-2-1-2-1-2-1-2-|-1-2-1-2-1-2-1-2-|

   End
C#|------------0--------|
G#|-------0-------------|
E |----20---20----------|
H |-18------------------|
F#|---------------------|
H |---------------------|
petlica
 
Posty: 36
Rejestracja: 29 Sie 2012, 08:26

PoprzedniaNastępna

Wróć do Zespół

Kto jest na forum

Użytkownicy przeglądający to forum: Brak zarejestrowanych użytkowników oraz 1 gość