Tabulatury

Moderator: Kred

Tabulatury

Postprzez Kred » 16 Maj 2011, 19:42

Wszystkie tabulatury Luxtorpedy, które zebrał i poprawił Satch91, baza z dn. 7.02.2013:

LUXOWE TABY.rar
(11.98 KiB) Ściągnięto 5777 razy


pozostałe Taby do Buraków, wstawione 27.12.2015:
Buraki.zip
(13.01 KiB) Ściągnięto 535 razy




wstawił: Smok




Nie znam strojów gitary (albo inaczej - nie chce mi się pamiętać ;) ), generalnie Lux gra na całym stroju obniżonym o 1 ton.

"Niezalogowany".

Kod: Zaznacz wszystko
NIEZALOGOWANY tab


INTRO:

E---------------------------|
H---------------------------|
G---------------------------|
D---------------------------|
A---------------------------|
E-0-17-17-17-17-17-15-18-18-| 8x


Po czterech taktach wchodzi Drężek z:

E-------------------|
H-------------------|
G-------------------|
D-------------------|
A---7-7-7-7-7-5-8-8-|
E-0-5-5-5-5-5-3-6-6-| 4X




PRE-VERSE: 8x obie gitary jak Drężek.



VERSE 1: 4x j.w.




Chorus ("Control!"):

E-----------|
H-----------|
G-----------|
D-7---------|
A-5-5-9-7-5-|
E---3-7-5-3-| 8X




PRE-VERSE pt.2:

Drężek gra swoje, a Litza:

E-------------------|---------------------|-------------------|-------------|
H-------------------|---------------------|-------------------|-------------|
G-------------------|---------------------|-------------------|-------------|
D---7-7-7-7-7-8-5-5-|---7-7-7-7-7-7-5-8-8-|---7-7-7-7-7-8-5-5-|---7-7-7-7-\-|
A-7-----------------|-7-------------------|-7-----------------|-7-----------|
E-------------------|---------------------|-------------------|-------------|



VERSE 2: j.w.


SOLO (LITZA):

E---------------------------|------------------------|-
H---------------------------|------------------------|-
G---------------------------|------------------------|-
D---------------------19-19-|------------------16-17-|-
A---------------18-17-------|------------18-17-------|-
E-0-17-17-17-17-------------|-0-17-17-17-------------|-

E---------------------------|-----------------|
H---------------------------|-----------------|
G---------------------------|-----------------|
D------------------------19-|-----------------|
A------------------18-17----|-----------------|
E-0-17-17-17-17-17----------|-0-17-17-17-17-\-|



Teraz z solem wchodzi Drężek (tego nie rozpracuję), a Litza gra:

E-------------------|
H-------------------|
G-------------------|
D-------------------|
A-------------------|
E-0-5-5-5-5-5-3-7-7-| odpowiednią ilość razy.

Aranżacja łatwa do rozpracowania.
Uwaga! Uwaga! Pasażerowie udający się do Londynu samolotem Polskich Linii Lotniczych "LOT", rejs 287E, proszeni są o przejście do wejścia "D" oznaczonego literą "A". Dziękuję.
Awatar użytkownika
Kred
 
Posty: 43099
Rejestracja: 14 Maj 2011, 02:38
Miejscowość: Poznań

Re: Tabulatury.

Postprzez Smok » 16 Maj 2011, 19:57

nieźle Kred! dobra robota!
Więc dokąd, dokąd ta wędrówka
Posmutniał król i zadął w róg
Przeciwnik straszy, pielgrzym idzie
A pyta zawsze Bóg
Awatar użytkownika
Smok
 
Posty: 5709
Rejestracja: 11 Maj 2011, 12:45
Miejscowość: Wschód

Re: Tabulatury.

Postprzez uszak » 16 Maj 2011, 19:58

Kred napisał(a):Nie znam strojów gitary (albo inaczej - nie chce mi się pamiętać ;) ), generalnie Lux gra na całym stroju obniżonym o 1 ton.

Grałem "Niezalogowanego" do tej pory na Dropped D i wszystko fajnie hula. Tylko wtedy trzeba byłoby wstawioną przez Kreda tabulaturę na ten strój przetransponować.
Awatar użytkownika
uszak
 
Posty: 2579
Rejestracja: 14 Maj 2011, 10:22

Re: Tabulatury.

Postprzez Kred » 16 Maj 2011, 20:05

Na Washburnie też robię w Dropped D (bo chujowa podróba FloydRose'a i nie mam siły całej przestrajać) ale pudło przestrajam całe. Rzecz w tym, że z innymi numerami może być problem w Dropped D.

Dzięki, pany! ;)

"Świnie" w drodze.
Uwaga! Uwaga! Pasażerowie udający się do Londynu samolotem Polskich Linii Lotniczych "LOT", rejs 287E, proszeni są o przejście do wejścia "D" oznaczonego literą "A". Dziękuję.
Awatar użytkownika
Kred
 
Posty: 43099
Rejestracja: 14 Maj 2011, 02:38
Miejscowość: Poznań

Re: Tabulatury.

Postprzez moher » 16 Maj 2011, 20:07

Lux stroi w DGCFAD. Tylko "Za wolność" jest z stołem do C. NO i jeszcze nowy numer "Gdzie Ty jesteś" jest w dropid do C.
Masz ryj jak pudelek. Jak mówię, że działa, to działa!
Awatar użytkownika
moher
 
Posty: 4565
Rejestracja: 14 Maj 2011, 09:34

Re: Tabulatury.

Postprzez q51 » 16 Maj 2011, 20:09

ja tam lubie stroje z przyjdz! tymoteusza. z tymi byly jazdy. :)
q51
 
Posty: 111
Rejestracja: 12 Maj 2011, 17:05

Re: Tabulatury.

Postprzez Kred » 16 Maj 2011, 20:32

Strój - tak jak mówi Moher. Zostawiam jednak standardowe nazwy strun, żeby nie mieszać. ;)
Właśnie w "Świniach" nie może być tylko Dropped D, ze względu na flażolet pod koniec (w każdym bądź razie ja nie mogłem go znaleźć w normalnym stroju).

"Świnie":

Kod: Zaznacz wszystko
3000 ŚWIŃ tab

INTRO/CHORUS:

E--------------------------------------------------------------|
H--------------------------------------------------------------|
G--------------------------------------------------------------|
D-7--7-7-7-7-7-7-----------------------------------------------|
A-5--5-5-5-5-5-5-6--6-6-6-6-6-6-5--5-5-5-5-5-5-5-5-5-5-5-5-5-5-|
E----------------4--4-4-4-4-4-4-3--3-3-3-3-3-3-3-3-3-3-3-3-3-3-|



VERSE:

E--------------------------------|
H--------------------------------|
G--------------------------------|
D--------------------------------|
A-----6-6--------9-9-9-9-9-9-9-9-|
E-8-8-----7-8-7--7-7-7-7-7-7-7-7-| 2x

E--------------------------------------------------------------|
H--------------------------------------------------------------|
G--------------------------------------------------------------|
D--------------------------------------------------------------|
A-----6-6------7--7-7-7-7-7-7-6--6-6-10-10109--9-9-9-9-9-9-9-9-|
E-8-8-----7-8--5--5-5-5-5-5-5-4--4-4-8--8-8-7--7-7-7-7-7-7-7-7-| 1x

E--------------------------------|
H--------------------------------|
G--------------------------------|
D--------------------------------|
A-----6-6--------9-9-9-9-9-9-9-9-|
E-8-8-----7-8-7--7-7-7-7-7-7-7-7-| 1x


SOLO/BRIDGE (do rozkminienia)


SLOW VERSE:

E--------------------------------|--------------------------------|
H--------------------------------|--------------------------------|
G--------------------------------|--------------------------------|
D--------------------------------|--------------------------------|
A-9--9-9-9-9-9-9-9-9-9-9-9-109-9-|-10-9-9-9-9-9-9-9-9-9-9-9-109-9-|
E-7--7-7-7-7-7-7-7-7-7-7-7-8-7-7-|-8--7-7-7-7-7-7-7-7-7-7-7-8-7-7-|

E------------------------------------------------------|
H------------------------------------------------------|
G------------------------------------------------------|
D------------------------------------------------------|
A-7--7-7-7-7-7-7-6--6-6-10-10109--9-9-9-9-9-9-9-9------|
E-5--5-5-5-5-5-5-4--4-4-8--8-8-7--7-7-7-7-7-7-7-7(...)-|


W pewnym momencie są flażolety:

E-------------------------|
H-------------------------|
G-------------------------|
D-[7]-[7]-[7]-[7]-[7]-[7]-|
A-------------------------|
E-------------------------|
Uwaga! Uwaga! Pasażerowie udający się do Londynu samolotem Polskich Linii Lotniczych "LOT", rejs 287E, proszeni są o przejście do wejścia "D" oznaczonego literą "A". Dziękuję.
Awatar użytkownika
Kred
 
Posty: 43099
Rejestracja: 14 Maj 2011, 02:38
Miejscowość: Poznań

Re: Tabulatury.

Postprzez Kred » 17 Maj 2011, 00:42

Obiecane:

Kod: Zaznacz wszystko
AUTYSTYCZNY tab


INTRO

Gtr. 1
E-------------------------|-------------------------|
H-------------------------|-------------------------|
G----------------------14-|----------------14----14-|
D-12-12-12-12-12-12-12----|-12-12-12-12-12----12----|
A-------------------------|-------------------------|
E-------------------------|-------------------------| (REPEAT)

Gtr. 2
E-------------------------|-------------------------|
H-------------------------|-------------------------|
G-------------------------|-------------------------|
D-9--9--9--9--9--9--9--9--|-9--9--9--9--9--9--9--9--|
A-7--7--7--7--7--7--7--7--|-7--7--7--7--7--7--7--7--|
E-------------------------|-------------------------| 2x

E-------------------------|-------------------------|
H-------------------------|-------------------------|
G-------------------------|-------------------------|
D-5--5--5--5--5--5--5--5--|-5--5--5--5--5--5--5--5--|
A-3--3--3--3--3--3--3--3--|-3--3--3--3--3--3--3--3--|
E-------------------------|-------------------------|

E-------------------------|-------------------------|
H-------------------------|-------------------------|
G-------------------------|-------------------------|
D-------------------------|-------------------------|
A-3--3--3--3--3--3--3-----|-----3--3--3--3--3--3--3-|
E-5--5--5--5--5--5--5-----|-----1--1--1--1--1--1--1-|
                          |>[both guitars]


PRE- CHORUS / CHORUS:


Gtr. 1
E-----------------------------------|
H-----------------------------------|
G-9--9--14-12-14-16---14-12-14-(9)--|
D-----------------------------------|
A-7--7--12-10-12-14---12-10-12-(7)--|
E-----------------------------------| 3x
                               ^1st&3rd


E-------------------------|-------------------------|
H-------------------------|-------------------------|
G-16-16-16-16-16-16-16-19-|-14-14-14-14-14-14-14-12-|
D-------------------------|-------------------------|
A-14-14-14-14-14-14-14-17-|-12-12-12-12-12-12-12-10-|
E-------------------------|-------------------------| 1x


Gtr. 2
E-------------------------|-------------------------|
H-------------------------|-------------------------|
G-------------------------|-------------------------|
D-9--9--9--9--9--9--9--9--|-9--9--9--9--9--9--9--9--|
A-7--7--7--7--7--7--7--7--|-7--7--7--7--7--7--7--7--|
E-------------------------|-------------------------| 2x


E-------------------------|-------------------------|
H-------------------------|-------------------------|
G-------------------------|-------------------------|
D-5--5--5--5--5--5--5--5--|-5--5--5--5--5--5--5--5--|
A-3--3--3--3--3--3--3--3--|-3--3--3--3--3--3--3--3--|
E-------------------------|-------------------------|


E-------------------------|-------------------------|
H-------------------------|-------------------------|
G-------------------------|-------------------------|
D-------------------------|-------------------------|
A-4--4--4--4--4--4--4--4--|-3--3--3--3--3--3--3--3--|
E-2--2--2--2--2--2--2--2--|-1--1--1--1--1--1--1--1--|



VERSE:

Gtr. 1
E-------------------------|-------------------------|
H-------------------------|-------------------------|
G-------------------------|-------------------------|
D-9--9--9--9--9--9--9--9--|-9--9--9--9--9--9--9--9--|
A-7--7--7--7--7--7--7--7--|-7--7--7--7--7--7--7--7--|
E-------------------------|-------------------------| 2x


E-------------------------|-------------------------|
H-------------------------|-------------------------|
G-------------------------|-------------------------|
D-5--5--5--5--5--5--5--5--|-5--5--5--5--5--5--5--5--|
A-3--3--3--3--3--3--3--3--|-3--3--3--3--3--3--3--3--|
E-------------------------|-------------------------|

E-------------------------|-------------------------|
H-------------------------|-------------------------|
G-------------------------|-------------------------|
D-------------------------|-------------------------|
A-3--3--3--3--3--3--3--3--|-3--3--3--3--3--3--3--3--|
E-1--1--1--1--1--1--1--1--|-1--1--1--1--1--1--1--1--|


Gtr. 2
E-------------------------|-------------------------|
H-------------------------|-------------------------|
G-------------------------|-------------------------|
D-9--9--9--9--9--9--9--9--|-9--9--9--9--9--9--9--9--|
A-7--7--7--7--7--7--7--7--|-7--7--7--7--7--7--7--7--|
E-------------------------|-------------------------| 2x

E-------------------------|
H-------------------------|
G-------------------------|
D-------------------------|
A-14-14-14-14-14-14-14-14-|
E-------------------------| 2x

E-------------------------|
H-------------------------|
G-------------------------|
D-------------------------|
A-12-12-12-12-12-12-12-10-|
E-------------------------| 2x


Bridge i Solo - do rozkminienia ;)
Uwaga! Uwaga! Pasażerowie udający się do Londynu samolotem Polskich Linii Lotniczych "LOT", rejs 287E, proszeni są o przejście do wejścia "D" oznaczonego literą "A". Dziękuję.
Awatar użytkownika
Kred
 
Posty: 43099
Rejestracja: 14 Maj 2011, 02:38
Miejscowość: Poznań

Re: Tabulatury.

Postprzez moher » 17 Maj 2011, 00:53

Nigdy nie kumałem nut ani tabulatur. Czas się nauczyć? :ugeek:
Masz ryj jak pudelek. Jak mówię, że działa, to działa!
Awatar użytkownika
moher
 
Posty: 4565
Rejestracja: 14 Maj 2011, 09:34

Re: Tabulatury.

Postprzez Kred » 17 Maj 2011, 01:00

Nuty to miazga, ale taby to pryszcz. Problem w tym, że w tabach nie zapiszesz dokładnie długości dźwięków.
Ucz się, ucz. Tabulatur, nut nie musisz, sam Wielebny nie umie (sam mówił). :lol:
Uwaga! Uwaga! Pasażerowie udający się do Londynu samolotem Polskich Linii Lotniczych "LOT", rejs 287E, proszeni są o przejście do wejścia "D" oznaczonego literą "A". Dziękuję.
Awatar użytkownika
Kred
 
Posty: 43099
Rejestracja: 14 Maj 2011, 02:38
Miejscowość: Poznań

Re: Tabulatury.

Postprzez gloomy » 17 Maj 2011, 22:31

Kred dzięki za taby, ale nie pasuje mi Autystyczny...zarówno intro jak i coś w zwrotkach nie pasi :/
gloomy
 
Posty: 4259
Rejestracja: 15 Maj 2011, 00:19

Re: Tabulatury.

Postprzez Kred » 17 Maj 2011, 23:32

Zawsze możesz poprawić, nie jestem nieomylny. Wszelkie poprawki mile widziane.
Uwaga! Uwaga! Pasażerowie udający się do Londynu samolotem Polskich Linii Lotniczych "LOT", rejs 287E, proszeni są o przejście do wejścia "D" oznaczonego literą "A". Dziękuję.
Awatar użytkownika
Kred
 
Posty: 43099
Rejestracja: 14 Maj 2011, 02:38
Miejscowość: Poznań

Re: Tabulatury.

Postprzez gloomy » 18 Maj 2011, 00:06

postaram się jak tylko zamontuję nówki struny bo mi G poszło ;)
gloomy
 
Posty: 4259
Rejestracja: 15 Maj 2011, 00:19

Re: Tabulatury.

Postprzez veida » 18 Maj 2011, 00:07

to jest chyba najczęściej pękająca i najtrudniejsza do nastrojenia struna ;)
.
Awatar użytkownika
veida
 
Posty: 1506
Rejestracja: 14 Maj 2011, 10:54
Miejscowość: Gdańsk

Re: Tabulatury.

Postprzez Kred » 18 Maj 2011, 00:11

Nie u mnie, mi zawsze tylko E pękają. Mam masę zestawów bez E właśnie. ;)
Spoko, Glumi, próbuj, mi się właśnie tak udało wyłapać ze słuchu i z wideło.
Uwaga! Uwaga! Pasażerowie udający się do Londynu samolotem Polskich Linii Lotniczych "LOT", rejs 287E, proszeni są o przejście do wejścia "D" oznaczonego literą "A". Dziękuję.
Awatar użytkownika
Kred
 
Posty: 43099
Rejestracja: 14 Maj 2011, 02:38
Miejscowość: Poznań

Re: Tabulatury.

Postprzez veida » 18 Maj 2011, 00:27

A jaka grubość?

Ja kupuję (w sumie dawno kupowałem, czas by zmienić struny...) 10 - 52 i dawno mi żadna nie poszła, a z e-a-d (a w 95% gram właśnie na nich) to już nie pamiętam kiedy.
.
Awatar użytkownika
veida
 
Posty: 1506
Rejestracja: 14 Maj 2011, 10:54
Miejscowość: Gdańsk

Re: Tabulatury.

Postprzez Kred » 18 Maj 2011, 00:28

Wiesz, co, przenieśmy się do "Kącika gitarzysty"...
Uwaga! Uwaga! Pasażerowie udający się do Londynu samolotem Polskich Linii Lotniczych "LOT", rejs 287E, proszeni są o przejście do wejścia "D" oznaczonego literą "A". Dziękuję.
Awatar użytkownika
Kred
 
Posty: 43099
Rejestracja: 14 Maj 2011, 02:38
Miejscowość: Poznań

Re: Tabulatury.

Postprzez gloomy » 18 Maj 2011, 16:08

http://www.youtube.com/watch?v=RAE8-HPocnk tutaj coś tam niby widać jak panowie grają ;)

intro wg mnie jest (nie umiem tabulatur pisać, więc wybaczcie, ilość uderzeń samemu się skuma jak się zagra,strój tak jak Kred pisał obniżony o cały ton)

E
B
G-------------------12---12--
D 14-14-14-14-14---14-----
A
E

z filmiku zwrotki za bardzo nie mogłem wyczaić, chłopaki grają

E
B
G--9------
D--9--10----
A--7--10----i tu jest jakiś akord niedaleko tego "8-10", czy też "3-5" jak Kred napisał, którego nie mogę na gitarze zagrać, tzn nie mogę znaleźć.
E------8-----

refren ok, widać nawet dokładnie jak Litza przechodzi na fis i f
gloomy
 
Posty: 4259
Rejestracja: 15 Maj 2011, 00:19

Re: Tabulatury.

Postprzez Kred » 18 Maj 2011, 18:03

Popróbuję później.
Uwaga! Uwaga! Pasażerowie udający się do Londynu samolotem Polskich Linii Lotniczych "LOT", rejs 287E, proszeni są o przejście do wejścia "D" oznaczonego literą "A". Dziękuję.
Awatar użytkownika
Kred
 
Posty: 43099
Rejestracja: 14 Maj 2011, 02:38
Miejscowość: Poznań

Re: Tabulatury.

Postprzez Smok » 23 Maj 2011, 16:48

Kred napisał(a):Popróbuję później.

no to czekam już niecierpliwie na kolejne taby... przebrnąłem przez wszystkie opublikowane do tej pory, Autystyczny nawet da się zagrać, nie jest źle :)
Więc dokąd, dokąd ta wędrówka
Posmutniał król i zadął w róg
Przeciwnik straszy, pielgrzym idzie
A pyta zawsze Bóg
Awatar użytkownika
Smok
 
Posty: 5709
Rejestracja: 11 Maj 2011, 12:45
Miejscowość: Wschód

Następna

Wróć do Zespół

Kto jest na forum

Użytkownicy przeglądający to forum: Brak zarejestrowanych użytkowników oraz 3 gości